Guitaretab - guitar tabs
Song name
# A B C D E F G H I J K L M N O P Q R S T U V W X Y Z

Commander Cody - Hot Rod Lincon tab

#----------------------------------PLEASE NOTE---------------------------------#
#This file is the author's own work and represents their interpretation of the #
#song. You may only use this file for private study, scholarship, or research. #
#------------------------------------------------------------------------------##
 <199401151853.KAA27182@post-office.nevada.edu>
 jamesb@animal-farm.nevada.edu

Hot Rod Lincoln
Commander Cody and His Lost Planet Airmen
[ Tab from: http://www.guitaretab.com/c/commander-cody/3869.html ]
e ---------------------------|--------------------------------------------|
B ---------------------------|--------------------------------------------|
G ---------------------------|--------------------------------------------|
D ---------------------------|--------2-2-4-2-5-4-5-4-2-------------------|
A -------2-2-4-2-5-4-5-4-2---|--0-3-4-------------------4-----------------|
E -0-3-4-------------------4-|--------------------------------------------|

e ---------------------------|--------------------------------------------|
B ---------------------------|--------------------------------------------|
G ---------------------------|--------------------------------------------|
D -------4-4-6-4-7-6-7-6-4---|-9---9---9---9------------------------------|
A ---5-6-------------------6-|-7---7---7---7------------------------------|
E -7-------------------------|---9---9---9--------------------------------|

Bruce Bowling
Continuous Electron Beam Accelerator Facility
Newport News, VA

BOWLING@CEBAF.GOV
Related for Hot Rod Lincon tab
Hot Rod Lincon chords by Commander Cody