Song name
# A B C D E F G H I J K L M N O P Q R S T U V W X Y Z

Comme Restus - Palhasso Do Caralho tab

-------------------------------------------------------------------------------
			     PALHASSO DO cARALHO - Comme Restus
-------------------------------------------------------------------------------

Song: 		Palhasso do Caralho
Artist:		Comme Restus
Album:		Pharmácia Ananáz
Tabbed by: 	Canoxa (lord_in_house at portugalmail dot pt )

Gear - Electric Guitar, Distorted

pm ... - Palm Mute

Tuning: Standart (EADGBe)

	INTRO
e|----------------------------*drums kick in*------------|
B|-------------------------------------------------------|
G|-------------------------------------------------------|
D|-------------------------------------------------------|
A|--2--1----------2--1----------2--1----------2--1-------|
E|--------2--1----------2--1----------2--1----------2----|
pm ..................


e|-------------------------------------------------------|
B|-------------------------------------------------------|
G|--4--3--------4--3----------4--3---------4--3----------|  Play twice
D|--4--3--4--3--4--3---4--3---4--3--4--3---4--3--4--3----|
A|--2--1--4--3--2--1---4--3---2--1--4--3---2--1--4--3----|
E|--------2--1---------2--1---------2--1---------2--1----|

	VERSES
/ e|--Guitar 1-------------------------------------------|
| B|-----------------------------------------------------|
| G|--4--3-----------------------------------------------|  Play twice
| D|--4--3--4--3-----------------------------------------|
| A|--2--1--4--3-----------------------------------------|
| E|--------2--1-----------------------------------------|
|	
|	Porqué que tu não vais
|       Pó caralho?
| e|-----------------------------------------------------|
| B|-----7--9--9-9--7--9-9-------------------------------|
| G|-----------------------------------------------------|
| D|-----------------------------------------------------|
| A|-----------------------------------------------------|
| E|-----------------------------------------------------|
\

        OUTRO
F# F E
Repeat
Tap to rate this tab
 
# A B C D E F G H I J K L M N O P Q R S T U V W X Y Z