Song name
# A B C D E F G H I J K L M N O P Q R S T U V W X Y Z

Commodores - Slippery When Wet tab


This Song featured on House MD and I've had heaps of requests for a tab of the riff 
it and besides it's a very cool song.

Listen to the recording and put in a lot of percussive muting I've just shown where to 
it but It's only a guide so just work with the feel of the song.


e|-----------x-x-x-x-x-------------x-x-x-x-----------x-x-x-x--------------|
b|-----------x-x-x-x-x-------------x-x-x-x-----------x-x-x-x--------------|
g|-----------x-x-x-x-x-------------x-x-x-x-----------x-x-x-x--------------|
d|-7-5-7---5-x-x-x-x-x-7-5-7-------x-x-x-x-7-5-7---5-x-x-x-x-7-5-7--------|
a|-------7---x-x-x-x-x-------5-7-7-x-x-x-x-------7---x-x-x-x--------5-7-7-|
e|-----------x-x-x-x-x-------------x-x-x-x-----------x-x-x-x--------------|

Now an alto sax comes in and plays this line:

e|--------------------------|
b|-10-8-10---8--10-8-10-----|
g|---------9------------7-9-|
d|--------------------------|
a|--------------------------|
e|--------------------------|

Then the first riff repeats throughout the entire song, just remember go with the vibe of it.

Thanks
Tap to rate this tab
# A B C D E F G H I J K L M N O P Q R S T U V W X Y Z