Commodores - Brick House tab

-------------------------------------------------------------------------------
			     BRICK HOUSE - The Commodores
-------------------------------------------------------------------------------
Tabbed by: ironmanben
Email: bentrooper@gmail.com

Tuning: e B G D A E


This is the actual guitar part to Brick House.  This is not a saxophone arr. for guitar, 
is what the actual guitar in the song actually plays.


chorus:
e|-8-8-8------------9-----7-----7-------------------9-----7-----7---|
B|-8-8-8------------9-----7-----7-------------------9-----7-----7---|
G|------------------------------------------------------------------|
D|------------------------------------------------------------------|
A|------------------------------------------------------------------|
E|------------------------------------------------------------------|


verse:
e|--------5---------------5-----------5---------------5-----|
B|-/7-----5-----7--/7-----5----/7-----5-----7--/7-----5-----|
G|-/5---------------5----------/5--------------/5-----------|
D|----------------------------------------------------------|
A|----------------------------------------------------------|
E|----------------------------------------------------------|

e|-----------5---------------5-----5-----5---5---5---5-----5---|
B|-7--/7-----5-----7--/7-----5----/8-----8---8---8---7-----5---|
G|----/5--------------/5---------------------------------------|
D|-------------------------------------------------------------|
A|-------------------------------------------------------------|
E|-------------------------------------------------------------|


bridge:
 | x3                            | x1                               |
e|-------------------------------|-------------5---5-5------5-------|
B|-------------------------------|-------------5---5-5------5-------|
G|-4-----4-----0---0---0---5p4p0-|-4-----4--------------------------|
D|-5-----5-----------------------|-5-----5--------------------------|
A|-------------------------------|----------------------------------|
E|-------------------------------|----------------------------------|


outro:
e|-/8-8-8-|
B|-/8-8-8-|
G|--------|
D|--------|
A|--------|
E|--------|

ORDER:
drum/bass/sax intro
chorus x6
verse x2
chorus x6
verse x2
chorus x4
bridge x2
chorus x8
outro
keyboard/drums/bass outro


************************************

| /   slide up
| \   slide down
| h   hammer-on
| p   pull-off
| ~   vibrato
| +   harmonic
| x   Mute note
| b   Bend
| pb  Pre-bend
| br  Bend release
| pbr Pre-bend release
| brb Bend release bend

************************************
Tap to rate this tab
 
# A B C D E F G H I J K L M N O P Q R S T U V W X Y Z