Common Enemy - Your Life Not Mine tab

basic chords (figure rhythm out)

intro/chorus

e|------------|-----------------| 2x 
B|------------|-----------------|
G|--9-14----16|--9-14-----------|
D|9-9-14-14-16|9-9-14-14-7/9-7/9|
A|9-7-12-14-14|9-7-12-14-7/9-7/9|
E|7------12---|7------12-5/7-5/7|

verses

e|----------| 2x palm mute
B|----------|
G|----------|
D|--9-2---4-|
A|9-7-0-2-2-|
E|7-----0---|

prechorus

e|-----------| 2x
B|-----------|
G|---9-------|
D|7--9--7--9-|
A|7--7--7--9-|
E|5-----5--7-|

end riff

e|---12-17----19b-|---12-17----5/7-5/7-5/7*-|
B|12-------17-----|12-------17--------------|
G|----------------|-------------------------|
D|----------------|-------------------------|
A|----------------|-------------------------|
E|----------------|-------------------------|

*=pinch harmonic
b=bend

Structure

intro/chorus 2x
verse 2x
pre chorus 2x
intro/chorus 2x
verse 2x
pre chorus 2x
intro/chorus 4x
end riff 2x

written by Michael Cain and Becky Brown of the Common Enemy
Tap to rate this tab
 
# A B C D E F G H I J K L M N O P Q R S T U V W X Y Z