Song name
# A B C D E F G H I J K L M N O P Q R S T U V W X Y Z

Common Enemy - Dead Alive tab

Help us improve GuitareTab! Take a short survey!
-------------------------------------------------------------------------------
			     Dead Alive - Common Enemy
-------------------------------------------------------------------------------
Tabbed by: Omar Garcia
Email: ravage.cramoisi@gmail.com

Tuning: Standar

pm = Palm Mute

Listen to the song to get the rhythm


      x4                 x4
e|-------------|-------------------|
B|-------------|-------------------|
G|-------5-7-5-|-------------------|
D|-77777-5-7-5-|-77777--1010101010-| x2
A|-77777-3-5-3-|-55555---8-8-8-8-8-|
E|-55555-------|-------------------|

Dead Alive!
Rat monkey bit into her arm,
now she’s dead but she’s not gone
they put her in the cemetery, thought she was dead and buried
now they’re dead, dead alive, you can't stop them, but you can try
now they’re dead, dead alive, they’ll just kill and multiply
Lionel’s mom ate Paquita’s dog, dead and rotting still alive
she got the nurse and then the priest,
now she needs more flesh to feast
now they’re dead, dead alive, you can’t stop them but u can try
now they’re dead, dead alive, they’ll just kill and multiply

                           x4
e|---------------|-------------------|
B|---------------|-------------------|
G|-------5-7-5---|-------------------|
D|-77777-5-7-5-7-|-77777--1010101010-|
A|-77777-3-5-3-7-|-55555---8-8-8-8-8-|
E|-55555-------5-|-------------------|
pm .....

Surrounded by zombies, straps the mower on,
guts and limbs are everywhere,
blood splats on the wall, cuts them up one by one,
he wont stop until he’s done

        x2                 x4
e|---------------|-------------------|
B|---------------|-------------------|
G|-------5-7-5---|-------------------|
D|-77777-5-7-5-7-|-77777--1010101010-|
A|-77777-3-5-3-7-|-55555---8-8-8-8-8-|
E|-55555-------5-|-------------------|
pm .....

Won't stop until he’s done
won't stop until he’s done
Dead alive!
Dead alive!
Dead alive!
Dead alive!

     x2
e|---------|------------|
B|---------|------------|
G|---------|------------|
D|-7*--10*-|-5--7-------|
A|-5*---8*-|-3--5--5--7-|
E|---------|-------3--5-|

They’re all fucking dead!
They’re all fucking dead!
===============================================================================
Related for Dead Alive tab