Song name
# A B C D E F G H I J K L M N O P Q R S T U V W X Y Z

Common Kings - Alcoholic tab

I saw a chord version which was perfect, but thought I'd throw up a tab to get the
right pitch and for those that dont know the chords.
Drop a comment if i stuffed up.


INTRO

E|-------5-------9------9-----7-7----------------------|
B|-------5-------9h10--10-----7-7------7---7-----------|
G|------ 6-------9h11--11-----7-7------7---7-----------|
D|------ 7-------9h11--11-----9-9------6---6-----------|
A|------ 7-------9------9-----9-9------7---7-----------|
E|-------5---------------------------------------------|

VERSE/CHORUS
Those 4 chords go throughout most of the song, just change the strum for the chorus etc.

BRIDGE
E|---5----4-4----2----5---------5----4--4-------------------|
A|---7----5-5----3----5---------7----5--5-----7-------------|
D|---6----4-4----2----6---------6----4--4-----7-------------|
G|---7----6-6----4----7---------7----6--6-----6-------------|
B|---5----4-4----2----7---------5----4--4-----7-------------|
E|--------------------5-------------------------------------|
Strum the last chord of the bridge a few times then go back to the Chorus/Verse whatever.
Tap to rate this tab
 
# A B C D E F G H I J K L M N O P Q R S T U V W X Y Z