Song name
# A B C D E F G H I J K L M N O P Q R S T U V W X Y Z

Common Rider - Rough Redemption tab

Band: Common Rider
Song: Rough Redemption
Album: Last Wave Rockers (1999)
Tuning: Standart E A D G B E

Yeah.. I needed a fuckin' long time to tab that genius song out...
Whatever, enjoy it to play that great music, 'cause Jesse Michaels'awesome!

Chords
 |   A    G    |
e|---5----3----|
B|---5----3----|
G|---6----4----|
D|---7----5----|
A|---7----5----|
E|---5----3----|

Intro
 |                                1x |
e|--5----5-----5-5--3~---------------|
B|--5----5-----5-5--3~---------------|
G|--6----6-----6-6--4~---------------|
D|--7----7-----7-7--5~---------------|
A|--7----7-----7-7--5~---------------|
E|--5----5-----5-5--3~---------------|

Verse - The verse is kinda skanky so you need to know how to play the ska-rhythm:
mute the death notes (x) and play them downstroke - The rest of the chords is played upstroke...
 |                                           2x |
e|---x5xx5----3~--|---x5xx5----3~--|---5-5--3---|
B|---x5xx5----5~--|---x5xx5----3~--|---5-5--3---|
G|---x6xx6----4~--|---x6xx6----4~--|---6-6--4---|
D|---x7xx7----5~--|---x7xx7----5~--|---7-7--5---|
A|---x7xx7----5~--|---x7xx7----5~--|---7-7--5---|
E|---x5xx5----3~--|---x5xx5----3~--|---5-5--3---|

Chorus - The Chorus is a bit difficult because you have to play alternately
between the chord and the death notes, and that through the whole chorus...
 |                                           1x |
e|---x5xx5x5xx5x5xx5x5xx5x5xx5x5xx5-x55555555---|
B|---x5xx5x5xx5x5xx5x5xx5x5xx5x5xx5-x55555555---|
G|---x6xx6x6xx6x6xx6x6xx6x6xx6x6xx6-x66666666---|
D|---x7xx7x7xx7x7xx7x7xx7x7xx7x7xx7-x77777777---|
A|---x7xx7x7xx7x7xx7x7xx7x7xx7x7xx7-x77777777---|
E|---x5xx5x5xx5x5xx5x5xx5x5xx5x5xx5-x55555555---|

Solo - After the chorus the trumpet starts the solo and you have to play the intro
to the solo, and after it you just play the whole solo the regular chorus rhythm.
At the end of the solo you play the outro to it, and next to it you beginn with the verse...
 |  Solo Intro                  | Chorus        |
e|--5-----55-----555-----5---5--|--x5xx5x5xx..--|
B|--5-----55-----555-----5---5--|--x5xx5x5xx..--|
G|--6-----66-----666-----6---6--|--x6xx6x6xx..--|
D|--7-----77-----777-----7---7--|--x7xx7x7xx..--|
A|--7-----77-----777-----7---7--|--x7xx7x7xx..--|
E|--5-----55-----555-----5---5--|--x5xx5x5xx..--|

 |  Solo Outro                     | Song Outro |
e|--5-5-5--5-5-5--5-5-5--5-----x5--|----x3~-----|
B|--5-5-5--5-5-5--5-5-5--5-----x5--|----x3~-----|
G|--6-6-6--6-6-6--6-6-6--6-----x6--|----x4~-----|
D|--7-7-7--7-7-7--7-7-7--7-----x7--|----x5~-----|
A|--7-7-7--7-7-7--7-7-7--7-----x7--|----x5~-----|
E|--5-5-5--5-5-5--5-5-5--5-----x5--|----x3~-----|

Order: Intro - 2xVerse - Chorus - 2xVerse - Chorus - Solo - 2xVerse - Chorus - Outro 

Yeah.. that's it! I think there's nothin' special to say expect maybe that you
please shouldn't mistake the solo outro with the regular song outro...
You play the solo outro at the end of the solo and the 'normal' outro after the last chorus...

So whatever, just enjoy the music of Common Rider...

If you have any questions or just wanna talk about some shit send me a mail:
My Name Is Joko - suburbiabomb@web.de
Tap to rate this tab
 
# A B C D E F G H I J K L M N O P Q R S T U V W X Y Z