Song name
# A B C D E F G H I J K L M N O P Q R S T U V W X Y Z

Common Rider - Signal Signal tab

Artist: Common Rider
Album: Last Wave Rockers
Song: Signal Signal

The song is played with ska style upstrokes and the strings that are muted are marked
with "X". During the solo the verse rhythm is played in the background for people
playing with 2 guitars.

Intro:
e:------------------------------------------------------------|
B:------------------------------------------------------------|
G:------------------------------------------------------------|
D:-------0-------------------------0--------------------------|
A:--2--2---2-0----------------2--2---2-0----------------------|
E:-------------2-2-2-0-2-----------------2-2-2-0-2------------|

Verse:
e:-x-7-x-7---x-5-x-5---x-3-x-3---3-3-3-3-3-2------------------|
B:-x-7-x-7---x-5-x-5---x-3-x-3---3-3-3-3-3-2------------------|
G:-x-7-x-7---x-6-x-6---x-4-x-4---4-4-4-4-4-3------------------|
D:-x-9-x-9---x-7-x-7---x-5-x-5---5-5-5-5-5-4------------------|
A:------------------------------------------------------------|
E:------------------------------------------------------------|

e:-x-7-x-7---x-5-x-5---x-2--x-2--x-2--x-2---------------------|
B:-x-7-x-7---x-5-x-5---x-2--x-2--x-2--x-2---------------------|
G:-x-7-x-7---x-6-x-6---x-3--x-3--x-3--x-3---------------------|
D:-x-9-x-9---x-7-x-7---x-4--x-4--x-4--x-4---------------------|
A:------------------------------------------------------------|
E:------------------------------------------------------------|

e:-x-7-x-7---x-5-x-5---x-3-x-3---x-3-x-3---x-2-x-2---x-2-x-2--|
B:-x-7-x-7---x-5-x-5---x-3-x-3---x-3-x-3---x-2-x-2---x-2-x-2--|
G:-x-7-x-7---x-6-x-6---x-4-x-4---x-4-x-4---x-3-x-3---x-3-x-3--|
D:-x-9-x-9---x-7-x-7---x-5-x-5---x-5-x-5---x-4-x-4---x-4-x-4--|
A:------------------------------------------------------------|
E:------------------------------------------------------------|

e:-x-7---x-7---x-5---x-5----------2---------------------------|
B:-x-7---x-7---x-5---x-5--------2---2-------------------------|
G:-x-7---x-7---x-6---x-6------3-------3---3-------------------|
D:-x-9---x-9---x-7---x-7----4-----------4---------------------|
A:------------------------------------------------------------|
E:------------------------------------------------------------|


Chorus:
e:-x-3-x-3---x-5-x-5---x-2-x-2---x-7-x-7----------------------|
B:-x-3-x-3---x-5-x-5---x-2-x-2---x-7-x-7----------------------|
G:-x-4-x-4---x-6-x-6---x-3-x-3---x-7-x-7----------------------|
D:-x-5-x-5---x-7-x-7---x-4-x-4---x-9-x-9----------------------|
A:------------------------------------------------------------|
E:------------------------------------------------------------|

e:-x-3-x-3---x-5-x-5---x-7-x-7----2-2-2-2-2-2-2-2-------------|
B:-x-3-x-3---x-5-x-5---x-7-x-7----2-2-2-2-2-2-2-2-------------|
G:-x-4-x-4---x-6-x-6---x-7-x-7----3-3-3-3-3-3-3-3-------------|
D:-x-5-x-5---x-7-x-7---x-9-x-9----4-4-4-4-4-4-4-4-------------|
A:------------------------------------------------------------|
E:------------------------------------------------------------|

Bridge:
e:------------------------------------------------------------|
B:------------------------------------------------------------|
G:-4-4-4------------------------------------------------------|
D:-4-4-4---0--------------------------------------------------|
A:-2-2-2-----2-0----------------------------------------------|
E:----------------2-2-2-0-2-----------------------------------|

Pre-Solo:
e:------------------------------------------------------------|
B:------------------------------------------------------------|
G:-4-4-4-4-4-4-4-4-4-4-4-4-4-4--------------------------------|
D:-4-4-4-4-4-4-4-4-4-4-4-4-4-4--------------------------------|
A:-2-2-2-2-2-2-2-2-2-2-2-2-2-2--------------------------------|
E:------------------------------------------------------------|
p.m.__________________________

Solo:
e:------------------------------------------------------------|
B:------------------------------------------------------------|
G:------------------------------------------------------------|
D:---------------------9--------------------------------------|
A:-----------7-9-9-10----9--7-7h9-7---------------------------|
E:-7--7-9-10------------------------10-9-10-9-7---------------|

e:------------------------------------------------------------|
B:------------------------------------------------------------|
G:----------------------9-------------------------------------|
D:-----------7-9-11-12-----12-11-11h12--9-7-9--7-7h9----------|
A:----7-9-10------------------------------------------10-9----|
E:-10---------------------------------------------------------|

Intro     X2
Verse     X1
Chorus    X1
Verse     X1
Chorus    X1
Intro     X2
Bridge    X3
Pre-Solo  X1
Solo      X1
Chorus    X2
Intro     X1.5

by: shatteredfurby
Tap to rate this tab
 
# A B C D E F G H I J K L M N O P Q R S T U V W X Y Z