Song name
# A B C D E F G H I J K L M N O P Q R S T U V W X Y Z

Company Of Thieves - New Letters chords

Highlighted       Show chord diagrams
Company Of Thieves- New Letters

really nice song by the company.Play with a capo on the second fret.
You play the chords like you would without a capo, so when I say E major,
it's really F# major your playing, and so on.


Chords:

        E  A  Amaj7  G#m*  Gm*  F#m*  B  C#m  G
   e ---0--0----0-----0----0-----0----0---0---0-----------------------------|
   b ---0--0----2-----0----0-----0----0---0---0-----------------------------|
   G ---1--2----1-----4----3-----2----4---6---4-----------------------------|
   D ---2--2----2-----6----5-----4----4---6---5-----------------------------|
   A ---2--0----0-----6----5-----4----2---4---5-----------------------------|
   E ---0------------(4)--(3)---(2)----------(3)----------------------------|


Intro guitar lead:

   e ---0h2p0---0-----------------0h2p0---0---------------------------------|
   b ---------0-----------0-------------0-----------------------------------|
   G -------------------2------------------------2-1------------------------|
   D ---------------2h4----------------------2h4-----2----------------------|
   A ---------------0~-----------------------0~-----------------------------|
   E -0-------------------------0-------------------------------------------|

play twice


1st Verse:

   E A       E    A        E    A             Amaj7
   I fell in love when you were brushing your teeth
 E   A   E  A       E     A
   O-ver my kitchen sink

   Amaj7 
   I have no means for distraction
   G#m
   No fuel that feeds the reaction
   Amaj7                G#m     Gm  F#m  B 
   I just came all this way just to say

   C#m      A     E   F#m
   I really do believe
   C#m      A              E              G F#m E
   This was much more than meant to be


play the intro on electric guitar clean, then


2nd Verse:

   E A      E   A        E    A           Amaj7
   I fell under when you were waiting for me
  E  A   E     A           E     A              Amaj7
   O-ver lines formed from time, what do they mean


   I have no means for distraction
   G#m
   No fuel that feeds the reaction
   Amaj7                G#m     Gm  F#m  B
   I Just came all this way just to say

   C#m      A      E    F#m
   I really do believe
   C#m           A         E              
   This was much more than meant to be
   C#m      A      E      F#m
   I really do believe in you
   C#m      A      E              G F#m E
   I really do believe in this

   
Violin section:

       F#m               A                    F#m            A
   e -----------------------------------------------------------------------|
   b -----------------------------------------------------------------------|
   G --1-------2---1-----1---------------------1------2--1------------------|
   D ------4------------------4------1---2--------2----------2--------------|
   A -----------------------------------------------------------------------|
   E -----------------------------------------------------------------------|

play twice, then

                F#m
   I won't give up, I can't give in
                A
   Can't get enough, where to begin
                F#m
   I won't give up on you, I can't give in 
                A
   Can't get enough of this where to begin

                F#m
   I won't give up, I can't give in
                A
   Can't get enough of this, where to begin
                F#m
   I won't give up on you, I can't give in 
                A
   Can't get enough of this where to begin

   Oh, where to begin


Outro section:

   E               B
   Let's all get together and start a cure
   F#m             A
   Let's all get together and start over, over



Keep playing that till the song ends. 


Key:

  p-pull off
  h-hammer on
  ~-hold note 
Tap to rate this tab
 
# A B C D E F G H I J K L M N O P Q R S T U V W X Y Z