Song name
# A B C D E F G H I J K L M N O P Q R S T U V W X Y Z

Company Of Thieves - Oscar Wilde tab

Company Of Thieves-Oscar Wilde

I dont know every little part played but i know most of it.My first tab so dont be harsh.


Chords:
          C#m  B  E  A  F#m*
      e ---4--(2)-0--0---0---------------------------------------------|
      b ---5---4--0--2---0---------------------------------------------|
      G ---6---4--1--2---2---------------------------------------------|
      D ---6---4--2--2---4---------------------------------------------|
      A ---4---2--2--0---4---------------------------------------------|
      E ----------0-----(2)--------------------------------------------|

*i dont know the exact name for that chord but its something like that.

I=2nd guitar
II=lead guitar


   e --x-4-4-4-------4-4-4-------4-4-4---------4-4-4--------------------|
   b --x-5-4-4-------5-4-4-------5-4-4---------5-4-4--------------------|
   G --x-6-4-4-------6-4-4-------6-4-4---------6-4-4--------------------|
I  D --x-6-4-4-------6-4-4-------6-4-4---------6-4-4--------------------|
   A --x-4-4-4-------4-4-4-------4-4-4---------4-4-4--------------------|
   E -------------------------------------------------------------------|


   e -----------------------------------------------------------------------|
   b -----------------------------------------------------------------------|
   G -----------------------------------------------------------------------|
II D -------------------------------------------------/11\------------------|
   A -----------------------------------------------------------------------|
   E -----------------------------------------------------------------------|


   e --4-4-4---------4-4-4--------------------------------------------------|
   b --5-4-4---------5-4-4-----------4~-------------------------------------|
   G --6-4-4---------6-4-4-----------4~-------------------------------------|
I  D --6-4-4---------6-4-4-----------4~-------------------------------------|
   A --4-4-4---------4-4-4-----------2~-------------------------------------|
   E -----------------------------------------------------------------------|


   e -------9-9-9---------9-9\----------------------------------------------|
   b -------9-9-9---------9-9\----------------------------------------------|
   G -------9-9-9---------9-9\----------------------------------------------|
II D --9-11----------9-11--------------------4/6-4\2--1-2-4-----------------|
   A -------------------------------/4--2-4-----------------2/4--2----------|
   E -----------------------------------------------------------------------|

   e --4-4-4---------4-4-4--------------------------------------------------|
   b --5-4-4---------5-4-4--------------4~----------------------------------|
   G --6-4-4---------6-4-4--------------4~----------------------------------|
I  D --6-4-4---------6-4-4--------------4~----------------------------------|
   A --4-4-4---------4-4-4--------------2~----------------------------------|
   E -----------------------------------------------------------------------|


   e ----------------------9-9----------------------------------------------|
   b ----------------------9-9----------------------------------------------|
   G -------9b10-----------9-9-----------------6/8--6\4-------4h6p4---------|
II D --9-11------11---9-11--------------/6-4h6--------------6---------------|
   A -----------------------------------------------------------------------|
   E -----------------------------------------------------------------------|

Verse:
    C#m                         B
    Episodes and parallels, and don't you want the invitation
    C#m
    Big bright accent, catty smile
    B
    Oscar Wilde confrontation

    C#m B
    Oh, live like it's the style
    C#m      B
    Whoa, we waltz on your front porch

Chorus:

    C#m                       E                  A
    We are all our own devil, we are our own devil
           C#m            E    A
    And we make this world our hell
    C#m                       E                  A
    We are all our own devil, we are our own devil
           C#m            E    A
    And we make this world our hell


2nd Verse:

    C#m                        B
    Porcelain teacups decorate tables and the conversation
    C#m
    Beauty pageants all the time
         B                                C#m
    It's running out, the time is running out

    B
    Live like it's the style
    C#m      B
    Whoa, we waltz on your front porch


play chorus twice, then


"Time" section:

    F#m                                             E
    Time keeps on ticking away, It's always running away

    Always running from time


play that like 8 time i think, then


   e -----------------------------------------------------------------------|
   b -----------------------------------------------------------------------|
   G -9-9-9-9-9-9-9-9-8-8-8-8-8-8-8--8h9p8\1-1-1-1-1-2-4--------------------|
   D ----------------------------------------------------4-4-4-4--2/6b7r6---|
   A -----------------------------------------------------------------------|
   E -----------------------------------------------------------------------|

   e -----------------------------------------------------------------------|
   b -----------------------------------------------------------------------|
   G --9-9-9-9-9-9-9-9-8-8-8-8-8-8-8-8----11/13-13---13p11\9--11---11/13----|
   D -----------------------------------------------------------------------|
   A -----------------------------------------------------------------------|
   E -----------------------------------------------------------------------|

   e ------------------------------------------------------------------------|
   b ------------------------------------------------------------------------|
   G --11\9------------------------------------------------------------------|
   D ---------11-------------------------------------------------------------|
   A ------------------------------------------------------------------------|
   E ------------------------------------------------------------------------|

play the chorus twice, then at the last part when she says

"oh oh, we make it our hell", play this


   e -----------------------------------------------------------------------|
   b ------12--14b16r14-----5------5------5------5------5----------5--------|
   G --/13--------------------6------6------6------6------6----------6------|
   D ---------------------------6------6------6------6------6----------6----|
   A ---------------------4-------------------------------------4-----------|
   E -----------------------------------------------------------------------|


   e ---------------------------4-4-4---------------------------------------|
   b -5------5------5------5----5-4-4---------------------------------------|
   G ---6------6------6------6--6-4-4---------------------------------------|
   D -----6------6------6-------6-4-4---------------------------------------|
   A ---------------------------4-4-4---------------------------------------|
   E -----------------------------------------------------------------------|


the end!

Key:

   /-slide up
   \-slide down
   b-bend
   r-release
   h-hammer on
   p-pull off
   x-muted note
   ~-hold note(s)
Tap to rate this tab
# A B C D E F G H I J K L M N O P Q R S T U V W X Y Z