Song name
# A B C D E F G H I J K L M N O P Q R S T U V W X Y Z

Company Of Thieves - In Passing tab

Company Of Thieves-In Passing Guitar Solo

This is as close as I can figure it out. Probably not perfect.

   e -10----10--------------------------------------------------/14--------|
   b -10b12-10b12-----10--8--7---------8h10p8\7-----------7-10------12-----|
   G -------------------------------9-----------9-7-9---8------------------|
   D ----------------------------------------------------------------------|
   A ----------------------------------------------------------------------|
   E ----------------------------------------------------------------------|


   e -12-14-15------------15--------12h15p12-------------------------------|
   b -12-------12---15b17----17r15-----------15p12-------------------------|
   G ----------------------------------------------14-12-------12----------|
   D ----------------------------------------------------14-13----12-------|
   A ----------------------------------------------------------------------|
   E ----------------------------------------------------------------------|


   e ----------------------------------------------------------------------|
   b ----------------------------------------------------------------------|
   G ----------------------------------------------------------------------|
   D ----14p12-------------------------------------------------------------|
   A -14-------14-12-10\---------------------------------------------------|
   E ----------------------------------------------------------------------|

Key:

   p-pull off
   b-bend
   r-release
   /-slide up
   \-slide down
   h-hammer on

The End!
Tap to rate this tab
 
# A B C D E F G H I J K L M N O P Q R S T U V W X Y Z