Song name
# A B C D E F G H I J K L M N O P Q R S T U V W X Y Z

Company Of Thieves - Around The Block chords

Highlighted       Show chord diagrams
Company Of Thieves-Around The Block

Chords:
      C#m F#m Cmaj7 Cdim7 E  G#m  B Asus2 A  E7
   e --4---2--------------0---4---2---0---0---0--|
   b --5---2----5-----4---0---4---4---0---2---3--|
   G --6---2----4-----2---1---4---4---2---2---1--|
   D --6---4----5-----4---2---6---4---2---2---2--|
   A --4---4----3-----3---2---6---2---0---0---2--|
   E ------2--------------0---4---------------0--|


Intro: E7
   
Chorus:   
   
   C#m       F#m              Cmaj7   Cdim7     E
   I want to know what's been going on, what's around the block 
   C#m       F#m          Cmaj7        Cdim7       E
   I like to die with the songs I love stuck in my head 

Verse:  
  
  Asus2 E  Asus2          Asus2 E Asus2
   Seeming seamless, it was never easy enough 
  
  Asus2 E    Asus2            Cmaj7       Cdim7  E
   To keep a smile thin while they pushed in the pin 
  
  Asus2 E  Asus2          Asus2 E Asus2
   Feeling fearless, it was never easy enough 
  
  Asus2 E   Asus2                  Cmaj7  Cdim7 E
   To figure friends from foes and so the story goes 

Chorus guitar riff:

   e ------11-9--------4--2----------------4-3\2-0---|     /-slide up
   b ------9--9--------2--2--------------------------|     \-slide down
   G ------9--9--------2--2---------4-2----4-3\2-1---|
   D -9/11---------2/4-------------------------------|
   A ------------------------0-2-3-------------------|
   E ------------------------------------------------| 

Chorus:   
   
   C#m       F#m              Cmaj7   Cdim7     E
   I want to know what's been going on, what's around the block 
   C#m       F#m          Cmaj7        Cdim7       E
   I like to die with the songs I love stuck in my head 
             C#m         F#m            Cmaj7  Cdim7      E
   I hope to make the most of all those hollow bones we become 
   C#m       F#m          Cmaj7           Cdim7 E
   I raise a toast to the souls that sang all along 

Verse:  
  
  Asus2 E  Asus2          Asus2 E Asus2 
   Feeling fearless, it was never easy enough 

  Asus2 E     Asus2                  Cmaj7    Cdim7  E
   To keep my feet on ground and head out of the clouds 

Chorus:  
   
   C#m       F#m              Cmaj7   Cdim7     E
   I want to know what's been going on, what's around the block 
   C#m       F#m          Cmaj7        Cdim7       E
   I like to die with the songs I love stuck in my head 
             C#m         F#m        Cmaj7  Cdim7      E
   I hope to make the most of those hollow bones we become 
   C#m       F#m          Cmaj7           Cdim7 E
   I raise a toast to the souls that sang all along 

   G#m       A                         F#m
   I've been gathering friends just to make some sounds 
              C#m       B
   Before the ship goes down 
   G#m       A                F#m
   I've been making amends by making the rounds 
              B
   Before the whole world ends 
       G#m                                 F#m
   And I've been gathering friends just to make some sounds 
                          E
   Before the ship goes down 

   C#m       F#m              Cmaj7  Cdim7      E
   I want to know what's been going on, what's around the block 
   C#m       F#m          Cmaj7        Cdim7       E
   I like to die with the songs I love stuck in my head 
             C#m        F#m             Cmaj7  Cdim7      E
   I hope to make the most of all those hollow bones we become 
                C#m        F#m           Cmaj7      Cdim7     E
   We all could raise a toast to all the souls that sang all along 
             C#m          F#m Cmaj7 Cdim7 E
   I hope to make the most  
                C#m          F#m Cmaj7 Cdim7 E
   We all could raise a toast 
   C#m       F#m          Cmaj7        Cdim7       E
   I like to die with the songs I love stuck in my head

Ending guitar riff:

   e -4-3\2-0----------------0--|
   b ------------------------3--|
   G -4-3\2-1----------------1--|
   D ------------------------2--|
   A -------------0--1-2-----2--|
   E --------------------0---0--|

The End!
Tap to rate this tab
 
# A B C D E F G H I J K L M N O P Q R S T U V W X Y Z