Song name
# A B C D E F G H I J K L M N O P Q R S T U V W X Y Z

Concrete Blonde - Everybody Knows tab

Capo on the 3rd Fret

Intro
Play it note for note if you're play it softly or use chord formations and move your 
around if you're playing it louder


-0^2--------0---------------------------------------|
-3----3-------3-3-3---3-3-3-------------------------|
---------2--------0^2-0-----------------------------|
00----2-----------------2-2----0-2-0----------------|
------0-0--0-0-0--3---3-3-3-0-2---------------------|
----------------------------------------------------|


--2--x--------0---------------x-x--|
--3--x--3-------3-3-3---3-3---x-x--|
-----x-----2--------0^2-0-----x-x--|
000--x--2-----------------2---x-x--|
-----x--0-0--0-0-0--3---3-3---x-x--|
-----x------------------------x-x--|

Use that chord pattern for the verses as well but be less accurate with the strumming 
and I think it will sound more full.

bridge

with everything changing...
listen to the song to get the strumming pattern

C, G, F, Am

Chorus

D                 Am
-2--2-2-3-5-3-2-------------|
-3--3-----------3--1--------|
-2--2--------------2--------|
-------------------2--------|
----------------------------|
----------------------------|
----------------------------|
Tap to rate this tab
# A B C D E F G H I J K L M N O P Q R S T U V W X Y Z