Song name
# A B C D E F G H I J K L M N O P Q R S T U V W X Y Z

Conditions - Keeping Pace With Planes tab

This is my second tab at U.G. (after my first tab been declined), now from a 
Conditions song that I love, keep pace with planes.

I think this intro is accurate, but surely not perfect.
Comments and corrections are welcome. Thank you.

e|----------------------------------|     |-------|
G|----------------------------------|     |-------|
D|-3-3-3--3--3--3---3--3--3---3--3--|(x3) |-3-3-3-|
B|-3-3-3--3--3--3---3--3--3---3--3--|     |-3-3-3-|
A|-1-1-1----------------------------|     |-1-1-1-|
E|----------------------------------|     |-------|


e|-/15-15-14-10--------10----12-----|     |-19-19-17-15-17-19-17-15-|
G|--------------12--12----12--------|     |-------------------------|  [Repeat all this section
D|----------------------------------|(x3) |-------------------------|   twice]
B|----------------------------------|     |-------------------------|
A|----------------------------------|     |-------------------------|
E|----------------------------------|     |-------------------------|

Band website: http://www.myspace.com/conditionsband
Tap to rate this tab
 
# A B C D E F G H I J K L M N O P Q R S T U V W X Y Z