Conditions - Better Life tab

This is only Alex Howard's (rhythm) part.

Intro
|--------------|
|--------------|
|--9--9--9--7--|
|--10-10-10-10-|
|--0--7--8--10-|
|--------------|

Intro Part 2

|--------------------------------------------------|
|--------------------------------------------------|
|--------------------------------------------------|
|--7-7-7-7-7-7-7-7-2-2-2-3-3-3-3-3-3-3-3-5-5-5-5-5-|
|--7-7-7-7-7-7-7-7-2-2-2-3-3-3-3-3-3-3-3-5-5-5-5-5-|
|--7-7-7-7-7-7-7-7-2-2-2-3-3-3-3-3-3-3-3-5-5-5-5-5-|

Pre Chorus

|------------------------------|
|------------------------------|
|------------------------------|
|--3-3-5-5-7-7-5-3-3-5-7-7-7-7-|
|--3-3-5-5-7-7-5-3-3-5-7-7-7-7-|
|--3-3-5-5-7-7-5-3-3-5-7-7-7-7-|

Chorus Part 1

|----------|
|----------|
|----------|
|--7-3-5-5-|
|--7-3-3-5-|
|--7-3---5-|

Chorus Part 2

|---------------------------------------------|
|---------------------------------------------|
|---------------------------------------------|
|--3-3-3-3-3-5-5-5-5-5-5-5-5-5-5-3-3-3-3-3----|
|--3-3-3-3-3-3-3-3-3-3-5-5-5-5-5-3-3-3-3-3----|
|--3-3-3-3-3-----------5-5-5-5-5-3-3-3-3-3----|

Intro Part 2
Pre Chorus
Chorus Part 1 & 2
Intro Part 1
Bridge Part 1

|------------------|
|------------------|
|------------------|
|--3-3-5-5-7-7-7-7-|
|--3-3-5-5-7-7-7-7-|
|--3-3-5-5-7-7-7-7-|

Bridge Part 2

|----------------------------------|
|----8---8---8---8---8---8---8---8-|
|----------------------------------|
|--5-5-5-5-7-5-7-5-3-5-5-5-7-5-7-5-|
|--5---5---7---7---3---5---7---7---|
|--5---5---7---7---3---5---7---7---|

Chorus Part 1 & 2
Intro Part 2
Tap to rate this tab
 
# A B C D E F G H I J K L M N O P Q R S T U V W X Y Z