Conditions - Keeping Pace With Planes Acoustic tab

Keeping Pace with Planes by Conditions
Drop D-Capo 1

ALL THESE CHORDS ARE PLAYED WITH THE B AND HIGH E STRINGS OPEN


Intro
e--------------------------------------------------------------------------------|
B--------------------------------------------------------------------------------|
G--4----~------------------------------------------------------------------------|
D--4(x4)~-(x2)-------------------------------------------------------------------|
A--2----~------------------------------------------------------------------------|
D--------------------------------------------------------------------------------|

Intro/Verse Rythm
e----------------------------------------------------------------------------------|
B----------------------------------------------------------------------------------|
G--4------4------2-----------------------------------------------------------------|
D--4(x16)-2(x16)-2------7---------(x2)---------------------------------------------|
A--2------0------0(x16)-7(16)------------------------------------------------------|
D-----------------------5----------------------------------------------------------|

Verse Lead Let these ring
e-------2----------6-------2-----0-----------------------------------------------|
B-----3----------6-------3-----3-------------------------------------------------|
G---4----------7-------4-----2---------------------------------------------------|
D--------------------------------------------------------------------------------|
A--------------------------------------------------------------------------------|
D--------------------------------------------------------------------------------|

The Chorus is a variation of the Verse
e--------------------------------------------------------------------------------|
B--------------------------------------------------------------------------------|
G--4------4----------------------------------------------------------------------|
D--4(x16)-2(x16)-7------7---------(x2)-------------------------------------------|
A--2------0------5(x16)-7(16)----------------------------------------------------|
D----------------5------7--------------------------------------------------------|

Bridge
e--------------------------------------------------------------------------------|
B--------------------------------------------------------------------------------|
G--------------------------------------------------------------------------------|
D----------------7------9----10--9--7-----(x2)-----------------------------------|
A----------------5------7----10--7--5--------------------------------------------|
D----------------5------7----10--7--5--------------------------------------------|
Tap to rate this tab
 
# A B C D E F G H I J K L M N O P Q R S T U V W X Y Z