Conditions - Keeping Pace With Planes tab

Conditions
Keeping Pace With Planes (Acoustic)
Guitar Tab
Half Step Tuning - Eb Ab Db Gb Bb Eb
Tabbed By Jonathan Mack

This Is The Acoustic Version Of Keeping Pace
With Planes.And Its Played Half Step Down
From Standard E-Tuning.There Is A Few Videos
On The Net Of Conditions Playing This Song 
Acoustically.And From What I Can Tell Its 
Played Like This.

Note: All Rhythm Guitar Chords Are Strummed.
      I Have Not However Done The 
      Strumming Patterns.Due To LAZINESS.
      So,Thats Up To Figure Out.
      Its Not Hard =)

Intro

Rhythm Guitar
0:00
|0000--|
|0000--|
|6666--|
|6666--| x2
|4444--|
|------|

0:06   
|0--0--0--0|
|0--0--0--0|
|6--9--4--2|
|6--9--4--2| x2
|4--7--2--0|
|----------|


Lead Guitar
0:06
|--12-11------9-11-12|
|--------12-9--------|
|--------------------|
|--------------------| x3
|--------------------|
|--------------------|

0:15
|--14-16-14-12-14-16-14---|
|-----------------------14|
|-------------------------|
|-------------------------| x1
|-------------------------|
|-------------------------|

0:18
|--12-11------9-11-12|
|--------12-9--------|
|--------------------|
|--------------------| x3
|--------------------|
|--------------------|

0:27
|--14-16-14-12-14-16-14---|
|-----------------------14|
|-------------------------|
|-------------------------| x1
|-------------------------|
|-------------------------|

Verse One

Lead Guitar
0:30
|------|------|-----|-----|
|-----9|----12|----7|-----|
|---9--|8-9---|--9--|--9-8|
|11----|------|6----|9----| x2
|------|------|-----|-----|
|------|------|-----|-----|

Rhythm Guitar

(Palm Muted Slighty)
0:30
|----------|
|----------|
|6--4--2--4|
|6--4--2--4| x2
|4--2--0--2|
|----------|
 .  .  .  .
 

Pre Chorus One


Rhythm Guitar
0:54
|0--0--0--0|
|0--0--0--0|
|6--4--2--4|
|6--4--2--4| x2
|4--2--0--2|
|----------|

Lead Guitar
0:54
|--------------------------|--------------------------|
|--------------------------|--------------------------|
|666/999-888/13131313131313|666/999-888/11111111111111|
|xxx-xxx-xxx--x-x-x-x-x-x-x|xxx-xxx-xxx--x-x-x-x-x-x-x| x1
|444/777-666/11111111111111|444/777-666/-9-9-9-9-9-9-9|
|--------------------------|--------------------------|

1:00
|--------------------------|---------------------------|
|--------------------------|---------------------------|
|666/999-888/13131313131313|666/999-88/1616161616161616|
|xxx-xxx-xxx--x-x-x-x-x-x-x|xxx-xxx-xx--x-x-x-x-x-x-x-x| x1
|444/777-666/11111111111111|444/777-66/1414141414141414|
|--------------------------|---------------------------|


Chorus One

Rhythm Guitar
1:06
|0--0--0--0|
|0--0--0--0|
|6--9--2--4|
|6--9--2--4| x2
|4--7--0--2|
|----------|


Verse Two 

Rhythm Guitar

(Palm Muted Slighty)
1:30
|----------|
|----------|
|6--4--2--4|
|6--4--2--4| x2
|4--2--0--2|
|----------|
 .  .  .  .


Lead Guitar
1:30
|------|------|-----|-----|
|-----9|----12|----7|-----|
|---9--|8-9---|--9--|--9-8|
|11----|------|6----|9----| x2
|------|------|-----|-----|
|------|------|-----|-----|


Pre Chorus Two

Rhythm Guitar
1:54
|0--0--0--0|
|0--0--0--0|
|6--4--2--4|
|6--4--2--4| x2
|4--2--0--2|
|----------|
 

Lead Guitar
1:54
|--------------------------|--------------------------|
|--------------------------|--------------------------|
|666/999-888/13131313131313|666/999-888/11111111111111|
|xxx-xxx-xxx--x-x-x-x-x-x-x|xxx-xxx-xxx--x-x-x-x-x-x-x| x1
|444/777-666/11111111111111|444/777-666/-9-9-9-9-9-9-9|
|--------------------------|--------------------------|

2:00
|--------------------------|---------------------------|
|--------------------------|---------------------------|
|666/999-888/13131313131313|666/999-88/1616161616161616|
|xxx-xxx-xxx--x-x-x-x-x-x-x|xxx-xxx-xx--x-x-x-x-x-x-x-x| x1
|444/777-666/11111111111111|444/777-66/1414141414141414|
|--------------------------|---------------------------|

Chorus Two

Rhythm Guitar
2:06
|0--0--0--0|
|0--0--0--0|
|6--9--2--4|
|6--9--2--4| x2
|4--7--0--2|
|----------|


Bridge Section

Rhythm Guitar
2:29
|0--0--0--0|
|0--0--0--0|
|2--4--6--9|
|2--4--6--9| x2
|0--2--4--7|
|----------|

2:54
|0--0--0--0|
|0--0--0--0|
|2--4--2--4|
|2--4--2--4| x1
|0--2--0--2|
|----------|


Lead Guitar
2:30
|----------------------------|
|--------7-----9---7--------7|
|9-9-8-9---9-8---9--9-6-8-9--| x8
|----------------------------|
|----------------------------|
|----------------------------|

2:54
|--------------------------|--------------------------|
|--------------------------|--------------------------|
|666/999-888/13131313131313|666/999-888/11111111111111|
|xxx-xxx-xxx--x-x-x-x-x-x-x|xxx-xxx-xxx--x-x-x-x-x-x-x| x1
|444/777-666/11111111111111|444/777-666/-9-9-9-9-9-9-9|
|--------------------------|--------------------------|

3:00
|--------------------------|---------------------------|
|--------------------------|---------------------------|
|666/999-888/13131313131313|666/999-88/1616161616161616|
|xxx-xxx-xxx--x-x-x-x-x-x-x|xxx-xxx-xx--x-x-x-x-x-x-x-x| x1
|444/777-666/11111111111111|444/777-66/1414141414141414|
|--------------------------|---------------------------|


Chorus Three

Rhythm Guitar
3:06
|0--0--0--0|
|0--0--0--0|
|6--9--2--4|
|6--9--2--4| x4
|4--7--0--2|
|----------|

Lead Guitar
3:30
|9-11-12-11|9-11-12-11-9---|
|----------|-------------12|
|----------|---------------|
|----------|---------------| x3
|----------|---------------|
|----------|---------------|

3:39
|9-11-12-14|12-11-12-11-11|
|----------|--------------|
|----------|--------------|
|----------|--------------| x1
|----------|--------------|
|----------|--------------|

3:42
|9-11-12-11|9-11-12-11-9---|
|----------|-------------12|
|----------|---------------|
|----------|---------------| x3
|----------|---------------|
|----------|---------------|

3:51                      - Ring Out Last Note
|9-11-12-14|12-11-12-11-11--|
|----------|----------------|
|----------|----------------|
|----------|----------------| x1
|----------|----------------|
|----------|----------------|


End On

Rhythm Guitar

3:54
|0--|
|0--|
|6--|
|6--| x1
|4--|
|---|
Tap to rate this tab
 
# A B C D E F G H I J K L M N O P Q R S T U V W X Y Z