Song name
# A B C D E F G H I J K L M N O P Q R S T U V W X Y Z

Conditions - The Color 21 tab

--------------------------------------------------------------------------
			     The color 21 - Conditions
-----------------------------------------------------------------------------
Tabbed by: roro642
Email: r642916@hotmail.com

Tuning: Standard

| /   slide up
| \   slide down
| h   hammer-on
| p   pull-off

my first tab guys sounds 100% right. love this band so much

1st guitar repeats this the whole time

e|---------3-----2-----2-----2-----------------3/5--2-------------------------|
B|-----3-----3-----3-----3-----3---------3------------3-----------------------|
G|---0---0-----0-----0-----0-----0-----0---0------------2/4---2--p0-----------|
D|----------------------------------------------------------------------------|
A|-2--------------------------------0-----------------------------------------|
E|----------------------------------------------------------------------------|

2nd guitar:
e|---------------------------------------------------------------------------|
B|---------------------------------------------------------------------------|
G|---------------------------------------------------------------------------|
D|---------------------------------------------------------------------------|
A|--6---8----9-----11--------13-------14-----13---11-------8(x4)\9--4--------|
E|---------------------------------------------------------------------------|
Tap to rate this tab
# A B C D E F G H I J K L M N O P Q R S T U V W X Y Z