Song name
# A B C D E F G H I J K L M N O P Q R S T U V W X Y Z

Conditions - Better Life tab

-------------------------------------------------------------------------------
                             Better Life - Conditions
-------------------------------------------------------------------------------
So i wanted to learn this before,yet all the tabs were horribly incorrect
as far as the lead line went, so somehow i figured it out and i wanted to 
share it,so here ya go! furthermore this is just the lead line, because there is
another tab that gets the rhythm one pretty spot on.

Tabbed by: Jacob F.

Here is a video that goes along with it that has me playing the line,
just in case it helps: http://www.youtube.com/watch?v=d1HHfXGIFIs

E-mail:Theshado18@yahoo.com

Tuning:C#

          INTRO (Hook)
D#|----8---8/13-------10-------------10---------------|
A#|-------------13-13----13----13-------13----13------|
F#|--5---5------------------12----12-------12---------|--
C#|---------------------------------------------------|  |
G#|---------------------------------------------------|  |
C#|---------------------------------------------------|  |
                                                         |-- x2
D#|----8---8/13-------10-------------15-13-12-13------|  |
A#|-------------13-13----13----13---------------------|  |
F#|--5---5------------------12----12------------------|  |
C#|---------------------------------------------------|--
G#|---------------------------------------------------|
C#|---------------------------------------------------|

(the fade in notes here are done on two separate guitars,
the first note should be played by the rhythm and the second by lead,
then alternate notes)
                     Verse 
D#|---------------------------------------------------|
A#|--8<---13<---5<---12<---1<---5<---3< Let ring------|
F#|---------------------------------------------------| X2
C#|---------------------------------------------------|
G#|---------------------------------------------------|
C#|---------------------------------------------------|

                                 Pre-Chorus
D#|------8-8-8-8-----8-8-8-8-8-8-8-8-----8-8-8-8-----8-8-8-8-8-8-8-8--------|
A#|-------------------------------------------------------------------------|
F#|------5-5-5-5-----5-5-5-5-5-5-5-5-----5-5-5-5-----5-5-5-5-4-4-4-4--------|
C#|--3-3---------5-5-----------------7-7---------7-7------------------------|
G#|--3-3---------5-5-----------------7-7---------7-7------------------------|
C#|--3-3---------5-5-----------------7-7---------7-7------------------------|

D#|------8-8-8-8-----8-8-8-8-8-8-8-8-----8-8-8-8----------------------------|
A#|-------------------------------------------------------------------------|
F#|------5-5-5-5-----5-5-5-5-5-5-5-5-----5-5-5-5----------------------------|
C#|--3-3---------5-5-----------------7-7---------7-7-7\---------------------|
G#|--3-3---------5-5-----------------7-7---------7-7-7\---------------------|
C#|--3-3---------5-5-----------------7-7---------7-7-7\---------------------|

                                 Chorus
D#|----------------------------------------------------------------------|
A#|--------------------------------13-13-13-13-13-13-13-13-13-13-13-13---|
F#|----------------------------------------------------------------------| X2
C#|--7-7-7-7-7-7-7-3-3-3-3-3-3-3---10-10-10-10-10-10-10-9-9-9-9-9-9-9----|
G#|--7-7-7-7-7-7-7-3-3-3-3-3-3-3-----------------------------------------|
C#|--7-7-7-7-7-7-7-3-3-3-3-3-3-3-----------------------------------------|

D#|---------------------------------------------------|
A#|-10-12--12-12-13---13-13-15--15-12-13-13-13--------|
F#|---------------------------------------------------|
C#|-7--9---9--9--10---10-10-12--12-9--10-10-10--------| X4
G#|---------------------------------------------------|
C#|---------------------------------------------------|

                  HOOK
D#|----8---8/13-------10-------------10---------------|
A#|-------------13-13----13----13-------13----13------|
F#|--5---5------------------12----12-------12---------|--
C#|---------------------------------------------------|  |
G#|---------------------------------------------------|  |
C#|---------------------------------------------------|  |
                                                         |-- x2
D#|----8---8/13-------10-------------15-13-12-13------|  |
A#|-------------13-13----13----13---------------------|  |
F#|--5---5------------------12----12------------------|  |
C#|---------------------------------------------------|--
G#|---------------------------------------------------|
C#|---------------------------------------------------|


                        Verse 2
D#|---------------------------------------------------|
A#|--8<---13<---5<---12<---1<---5<---3< Let ring------|
F#|---------------------------------------------------| X2
C#|---------------------------------------------------|
G#|---------------------------------------------------|
C#|---------------------------------------------------|

                                 Pre-Chorus 2
D#|------8-8-8-8-----8-8-8-8-8-8-8-8-----8-8-8-8-----8-8-8-8-8-8-8-8--------|
A#|-------------------------------------------------------------------------|
F#|------5-5-5-5-----5-5-5-5-5-5-5-5-----5-5-5-5-----5-5-5-5-4-4-4-4--------|
C#|--3-3---------5-5-----------------7-7---------7-7------------------------|
G#|--3-3---------5-5-----------------7-7---------7-7------------------------|
C#|--3-3---------5-5-----------------7-7---------7-7------------------------|

D#|------8-8-8-8-----8-8-8-8-8-8-8-8-----8-8-8-8----------------------------|
A#|-------------------------------------------------------------------------|
F#|------5-5-5-5-----5-5-5-5-5-5-5-5-----5-5-5-5----------------------------|
C#|--3-3---------5-5-----------------7-7---------7-7-7\---------------------|
G#|--3-3---------5-5-----------------7-7---------7-7-7\---------------------|
C#|--3-3---------5-5-----------------7-7---------7-7-7\---------------------|

                                 Chorus 2
D#|----------------------------------------------------------------------|
A#|--------------------------------13-13-13-13-13-13-13-13-13-13-13-13---|
F#|----------------------------------------------------------------------| X2
C#|--7-7-7-7-7-7-7-3-3-3-3-3-3-3---10-10-10-10-10-10-10-9-9-9-9-9-9-9----|
G#|--7-7-7-7-7-7-7-3-3-3-3-3-3-3-----------------------------------------|
C#|--7-7-7-7-7-7-7-3-3-3-3-3-3-3-----------------------------------------|

D#|---------------------------------------------------|
A#|-10-12--12-12-13---13-13-15--15-12-13-13-13--------|
F#|---------------------------------------------------|
C#|-7--9---9--9--10---10-10-12--12-9--10-10-10--------| X4
G#|---------------------------------------------------|
C#|---------------------------------------------------|

     (the rhythm does his intro part, and then the hook comes
in after the second progression. listen to the song to figure it out)

                   Breakdown 
D#|----8---8/13-------10-------------10---------------|
A#|-------------13-13----13----13-------13----13------|
F#|--5---5------------------12----12-------12---------|--
C#|---------------------------------------------------|  |
G#|---------------------------------------------------|  |
C#|---------------------------------------------------|  |
                                                         |-- x2
D#|----8---8/13-------10-------------15-13-12-13------|  |
A#|-------------13-13----13----13---------------------|  |
F#|--5---5------------------12----12------------------|  |
C#|---------------------------------------------------|--
G#|---------------------------------------------------|
C#|---------------------------------------------------|

D#|------8-8-8-8-----8-8-8-8-8-8-8-8-----8-8-8-8-----8-8-8-8-8-8-8-8--------|
A#|-------------------------------------------------------------------------|
F#|------5-5-5-5-----5-5-5-5-5-5-5-5-----5-5-5-5-----5-5-5-5-4-4-4-4--------|
C#|--3-3---------5-5-----------------7-7---------7-7------------------------|
G#|--3-3---------5-5-----------------7-7---------7-7------------------------|
C#|--3-3---------5-5-----------------7-7---------7-7------------------------|

D#|------x-x-x-x-----x-x-x-x-x-x-x-x-----x-x-x-x----------------------------|
A#|------x-x-x-x------------------------------------------------------------|
F#|------x-x-x-x-----x-x-x-x-x-x-x-x-----x-x-x-x----------------------------|
C#|--3-3---------5-5-----------------7-7---------7-7------------------------|
G#|--3-3---------5-5-----------------7-7---------7-7---PICK SLIDE!----------|
C#|--3-3---------5-5-----------------7-7---------7-7------------------------|

D#|-------------------------------------------------------------------------|
A#|-------10-10-10-10------12-12-12-12-12-12-12-12------13-13-13-13---------|
F#|-------------------------------------------------------------------------|
C#|--3-3--7--7--7--7--5-5--9--9--9--9--9--9--9--9--7-7--10-10-10-10---------|
G#|--3-3--------------5-5--------------------------7-7----------------------|
C#|--3-3--------------5-5--------------------------7-7----------------------|

D#|-------------------------------------------------------------------------|
A#|-------15-15-15-15-15-15-15-15-------------------------------------------|
F#|-------------------------------------------------------------------------|
C#|--7-7--12-12-12-12-12-12-12-12-------------------------------------------|
G#|--7-7--------------------------------------------------------------------|
C#|--7-7--------------------------------------------------------------------|

D#|-------------------------------------------------------------------------|
A#|-------10-10-10-10------12-12-12-12-12-12-12-12------13-13-13-13---------|
F#|-------------------------------------------------------------------------|
C#|--3-3--7--7--7--7--5-5--9--9--9--9--9--9--9--9--7-7--10-10-10-10--7-7-7--|
G#|--3-3--------------5-5--------------------------7-7---------------7-7-7--|
C#|--3-3--------------5-5--------------------------7-7---------------7-7-7--|

                                 Chorus 3
D#|----------------------------------------------------------------------|
A#|--------------------------------13-13-13-13-13-13-13-13-13-13-13-13---|
F#|----------------------------------------------------------------------| X2
C#|--7-7-7-7-7-7-7-3-3-3-3-3-3-3---10-10-10-10-10-10-10-9-9-9-9-9-9-9----|
G#|--7-7-7-7-7-7-7-3-3-3-3-3-3-3-----------------------------------------|
C#|--7-7-7-7-7-7-7-3-3-3-3-3-3-3-----------------------------------------|

D#|---------------------------------------------------|
A#|-10-12--12-12-13---13-13-15--15-12-13-13-13--------|
F#|---------------------------------------------------|
C#|-7--9---9--9--10---10-10-12--12-9--10-10-10--------| X4
G#|---------------------------------------------------|
C#|---------------------------------------------------|

            Hook/Outro
D#|----8---8/13-------10-------------10---------------|
A#|-------------13-13----13----13-------13----13------|
F#|--5---5------------------12----12-------12---------|
C#|---------------------------------------------------|  
G#|---------------------------------------------------|  
C#|---------------------------------------------------| 
                                                         
D#|----8---8/13-------10------------------------------|  
A#|-------------13-13----13----13----13/--------------|  
F#|--5---5------------------12----12-12/--------------|  
C#|---------------------------------------------------|
G#|---------------------------------------------------|
C#|---------------------------------------------------|

************************************
| <   Fade in
| /   slide up
| \   slide down
| h   hammer-on
| p   pull-off
| ~   vibrato
| +   harmonic
| x   Mute note


************************************
Tap to rate this tab
 
# A B C D E F G H I J K L M N O P Q R S T U V W X Y Z