Song name
# A B C D E F G H I J K L M N O P Q R S T U V W X Y Z

Conducting From The Grave - Marching Towards Extiction tab

Ok people this is only from the right speaker...Rhythm? Lead? idk.
hope you like it!

Please Rate and Comment

|---------------------------------------------------------------------|
|---------------------------------------------------------------------|
|---------------------------------------------------------------------|
|12-0-0-12-0-0-10-0-12-0-0-0-0-0-0-0-12-0-0-12-0-0-10-0-12-0-15-14-10-|
|---------------------------------------------------------------------|
|---------------------------------------------------------------------|

|----------------------------------------------------------------------------|
|----------------------------------------------------------------------------|
|----------------------------------------------------------------------------|
|-19-0-17-0-15-0-14-15-0-0-15-0-0-14-0-0-15-0-0-0-0-0-0-0-15-0-0-15-0-0-14-0-|
|----------------------------------------------------------------------------|
|----------------------------------------------------------------------------|

|----------------------------------------------------------|
|----------------------------------------------------------|
|----------------------------------------------------------|
|15-0-17-0-15-0-14-0-19-0-17-0-15-0-14-0-20-0-19-0-17-0-15-|
|----------------------------------------------------------|
|----------------------------------------------------------|

|-------------------------------------------------------------------------|
|-------------------------------------------------------------------------|
|-------------------------------------------------------------------------|
|12-0-0-12-0-0-10-0-12-0-0-0-0-0-0-0-12-0-0-12-0-0-10-0-12-0-15-0-14-0-10-|
|-------------------------------------------------------------------------|
|-------------------------------------------------------------------------|
                                                       P
|--------------------------------------------------131713---------|
|------------------------------------------------15------15-------|
|----------------------------------------------14----------14-----|
|19-0-17-0-15-0-14-0-15-0-0-15-0-0-14-0-15---15--------------15---|
|------------------------------------------17------------------17-|
|-----------------------------------------------------------------|

|--------------------------------------------------------------------------|
|--------------------------------------------------------------------------|
|--------------------------------------------------------------------------|
|15-0-0-15-0-0-14-0-15-0-17-0-15-0-14-0-19-0-17-0-15-0-14-0-20-0-19-0-17-0-|
|--------------------------------------------------------------------------|
|--------------------------------------------------------------------------|

|-----|
|-----|
|-----|
|15-0-|
|-----|
|-----|
                                p
|---------------------------131713-------------------------------------------|
|-------------------------15------15-----------------------------------------|
|-----------------------14----------14---------------------------------------|
|12-0-0-12-0-0-10-0---15--------------15---12-0-0-12-0-0-10-0-12-0-15-0-14-0-|
|-------------------17------------------17-----------------------------------|
|----------------------------------------------------------------------------|

|--------------------------------------------------------------------------|
|--------------------------------------------------------------------------|
|--------------------------------------------------------------------------|
|10-0-19-0-17-0-15-0-14-0-15-0-0-15-0-0-14-0-15~~~~~~~~~~~~~~17-0-0-17-0-0-|
|--------------------------------------------------------------------------|
|--------------------------------------------------------------------------|

|-------------------------------------------|
|-------------------------------------------|
|-------------------------17---15---14---12-|
|15-0-19---17---15---14---------------------|
|-------------------------------------------|
|-------------------------------------------|

Sounds 100% correct to me
Sorry for odd timing or placement of notes, this was my first tab
Enjoy!
Tap to rate this tab
 
# A B C D E F G H I J K L M N O P Q R S T U V W X Y Z