Guitaretab - guitar tabs
Song name
# A B C D E F G H I J K L M N O P Q R S T U V W X Y Z

Conducting From The Grave - From Ruins We Rise tab

----------------------------------------------------------------------------
	         From Ruins We Rise - Conducting From The Grave
----------------------------------------------------------------------------
Tabbed by: Brydon
I haven't done most of the song, but I'm just putting this up so that maybe someone else 
work off it. I've tabbed out bits and pieces, its in order, but there are a lot of 
missing.

Tuning: Dropped C
P.M . . .   . . .                                      .   .    .    .
e|-------------------------------------------------------------------------|
B|-------------------------------------------------------------------------|
G|-------------------------------------------------------------------------|
D|---------------------------------------------------8-5-8-5-12-5-10-5-8-5-|
A|-8-5-5-5-8-5-5-5-8h10h12--8-5-5-5-8-5-5-5-8h10h12------------------------|
E|-------------------------------------------------------------------------|
     .
e|----------------------|
B|----------------------|
G|----------------------|
D|-8-5-8-7--------------|
A|---------8------------|
E|----------------------|

P.M . . .   . . .                                      .   .    .    .   .
e|-------------------------------------------------------------------------|
B|-------------------------------------------------------------------------|
G|-------------------------------------------------------------------------|
D|--------------------------------------------------8-5-8-5-10-7-10-7-12-8-|
A|-8-5-5-5-8-5-5-5-8h10h12--8-5-5-5-8-5-5-5-8h10h12------------------------|
E|-------------------------------------------------------------------------|
      .
e|----------------------|
B|----------------------|
G|----------------------|
D|-12-8-14--------------|
A|----------------------|
E|----------------------|

Above x3

Haven't Figured Out This Part Yet Sorry.

Next bit.
P.M [------------------------------------------------------------------------|
e|---------------------------------------------------------------------------|
B|---------------------------------------------------------------------------|
G|---------------------------------------------------------------------------|
D|---0-0-0-0-0-0-7-7-7-3-3-3-10-10-10-7-7-7-14-14-14-10-10-10----------------|
A|---------------------------------------------------------------------------|
E|---------------------------------------------------------------------------|

x2

Then another part I don't know.
This Again.

P.M [------------------------------------------------------------------------|
e|---------------------------------------------------------------------------|
B|---------------------------------------------------------------------------|
G|---------------------------------------------------------------------------|
D|---0-0-0-0-0-0-7-7-7-3-3-3-10-10-10-7-7-7-14-14-14-10-10-10----------------|
A|---------------------------------------------------------------------------|
E|---------------------------------------------------------------------------|

Same part missing.
[ Tab from: http://www.guitaretab.com/c/conducting-from-the-grave/192315.html ]
P.M [------------------------------------------------------------------------|
e|---------------------------------------------------------------------------|
B|---------------------------------------------------------------------------|
G|---------------------------------------------------------------------------|
D|---0-0-0-0-0-0-7-7-7-3-3-3-10-10-10-7-7-7-14-14-14-10-10-10----------------|
A|---------------------------------------------------------------------------|
E|---------------------------------------------------------------------------|

Same part.

e|-------------------------------------------------------------------------|
B|-------------------------------------------------------------------------|
G|-------------------------------------------------------------------------|
D|-------------------------------------------------------------------------|
A|-------------5-5-5-8-8-8-10-10-10-8-8-8-5-5-5-8-8-8----------------------|
E|-5-5-5-8-8-8-------------------------------------------------------------|


e|-------------------------------------------------------------------------|
B|-------------------------------------------------------------------------|
G|-------------------------------------------------------------------------|
D|----------------------------5-5-5----------------------------------------|
A|-12-12-12-8-8-8-5-5-5-8-8-8-------8-8-8-5-5-5-8-8-8----------------------|
E|-------------------------------------------------------------------------|

e|-------------------------------------------------------------------------|
B|-------------------------------------------------------------------------|
G|-------------------------------------------------------------------------|
D|-------------------------------------------------------------------------|
A|-------------5-5-5-8-8-8-12-12-12-8-8-8-5-5-5----------------------------|
E|-5-5-5-8-8-8----------------------------------8-8-8----------------------|

e|-------------------------------------------------------------------------|
B|-------------------------------------------------------------------------|
G|-------------------------------------------------------------------------|
D|-------------------------------------------------------------------------|
A|-12-12-12-8-8-8-5-5-5-8-8-8-10-10-10-8-8-8-5-5-5-8-8-8-------------------|
E|-------------------------------------------------------------------------|

Missing small bit here.

e|-------------------------------------------------------------------------|
B|-------------------------------------------------------------------------|
G|-------------------------------------------------------------------------|
D|-------------------------------------------------------------------------|
A|-3-3-3-3-3-3-3-3-5-0-0-0-3-3-3-3-3-3-3-3-5-0-0-0--0--0-0-0--0--0-0-0--0--|
E|-------------------0-0-0-------------------0-0-0--0--0-0-0--0--0-0-0--0--|

e|-------------------------------------------------------------------------|
B|-------------------------------------------------------------------------|
G|-------------------------------------------------------------------------|
D|-------------------------------------------------------------------------|
A|-8-8-8-8-8-8-8-8-10-0-0-0-10-10-10-10-10-10-10-10-12-0-0-0---------------|
E|--------------------0-0-0----------------------------0-0-0---------------|

e|----------------------------------------------------|
B|----------------------------------------------------|
G|----------------------------------------------------|
D|-17-15-14-15--14-12-14--12-10-8-7-8-7---------------|
A|----------------------------------------------------|
E|----------------------------------------------------| x2

Sorry don't know the rest.

| /  slide up
| \  slide down
| h  hammer-on
| p  pull-off
| ~  vibrato
| +  harmonic
| x  Mute note
===============================================================================
Related for From Ruins We Rise tab
Advertisement will be closed in 10 seconds