Song name
# A B C D E F G H I J K L M N O P Q R S T U V W X Y Z

Conducting From The Grave - From Ruins We Rise tab

This is a continuation from Brydon's tab, I take no credit in the tabbing of this song 
for the outro sweeps that are pretty accurate if not close, and hopefully it will get 
people to figure out other missing parts of this song because it's such an epic song!

| /  slide up
| \  slide down
| h  hammer-on
| p  pull-off
| ~  vibrato
| +  harmonic
| x  Mute note
| ^  Bend

Tuning: Dropped C
P.M . . .   . . .                                      .   .    .    .
e|-------------------------------------------------------------------------|
B|-------------------------------------------------------------------------|
G|-------------------------------------------------------------------------|
D|---------------------------------------------------8-5-8-5-12-5-10-5-8-5-|
A|-8-5-5-5-8-5-5-5-8h10h12--8-5-5-5-8-5-5-5-8h10h12------------------------|
E|-------------------------------------------------------------------------|
     .
e|----------------------|
B|----------------------|
G|----------------------|
D|-8-5-8-7--------------|
A|---------8------------|
E|----------------------|

P.M . . .   . . .                                      .   .    .    .   .
e|-------------------------------------------------------------------------|
B|-------------------------------------------------------------------------|
G|-------------------------------------------------------------------------|
D|--------------------------------------------------8-5-8-5-10-7-10-7-12-8-|
A|-8-5-5-5-8-5-5-5-8h10h12--8-5-5-5-8-5-5-5-8h10h12------------------------|
E|-------------------------------------------------------------------------|
      .
e|----------------------|
B|----------------------|
G|----------------------|
D|-12-8-14--------------|
A|----------------------|
E|----------------------|

Above x3

Haven't Figured Out This Part Yet Sorry.

Next bit.
P.M [------------------------------------------------------------------------|
e|---------------------------------------------------------------------------|
B|---------------------------------------------------------------------------|
G|---------------------------------------------------------------------------|
D|---0-0-0-0-0-0-7-7-7-3-3-3-10-10-10-7-7-7-14-14-14-10-10-10----------------|
A|---------------------------------------------------------------------------|
E|---------------------------------------------------------------------------|

x2

Then another part I don't know.
This Again.

P.M [------------------------------------------------------------------------|
e|---------------------------------------------------------------------------|
B|---------------------------------------------------------------------------|
G|---------------------------------------------------------------------------|
D|---0-0-0-0-0-0-7-7-7-3-3-3-10-10-10-7-7-7-14-14-14-10-10-10----------------|
A|---------------------------------------------------------------------------|
E|---------------------------------------------------------------------------|

Same part missing.

P.M [------------------------------------------------------------------------|
e|---------------------------------------------------------------------------|
B|---------------------------------------------------------------------------|
G|---------------------------------------------------------------------------|
D|---0-0-0-0-0-0-7-7-7-3-3-3-10-10-10-7-7-7-14-14-14-10-10-10----------------|
A|---------------------------------------------------------------------------|
E|---------------------------------------------------------------------------|

Same part.

e|-------------------------------------------------------------------------|
B|-------------------------------------------------------------------------|
G|-------------------------------------------------------------------------|
D|-------------------------------------------------------------------------|
A|-------------5-5-5-8-8-8-10-10-10-8-8-8-5-5-5-8-8-8----------------------|
E|-5-5-5-8-8-8-------------------------------------------------------------|


e|-------------------------------------------------------------------------|
B|-------------------------------------------------------------------------|
G|-------------------------------------------------------------------------|
D|----------------------------5-5-5----------------------------------------|
A|-12-12-12-8-8-8-5-5-5-8-8-8-------8-8-8-5-5-5-8-8-8----------------------|
E|-------------------------------------------------------------------------|

e|-------------------------------------------------------------------------|
B|-------------------------------------------------------------------------|
G|-------------------------------------------------------------------------|
D|-------------------------------------------------------------------------|
A|-------------5-5-5-8-8-8-12-12-12-8-8-8-5-5-5----------------------------|
E|-5-5-5-8-8-8----------------------------------8-8-8----------------------|

e|-------------------------------------------------------------------------|
B|-------------------------------------------------------------------------|
G|-------------------------------------------------------------------------|
D|-------------------------------------------------------------------------|
A|-12-12-12-8-8-8-5-5-5-8-8-8-10-10-10-8-8-8-5-5-5-8-8-8-------------------|
E|-------------------------------------------------------------------------|

Missing small bit here.

e|-------------------------------------------------------------------------|
B|-------------------------------------------------------------------------|
G|-------------------------------------------------------------------------|
D|-------------------------------------------------------------------------|
A|-3-3-3-3-3-3-3-3-5-0-0-0-3-3-3-3-3-3-3-3-5-0-0-0--0--0-0-0--0--0-0-0--0--|
E|-------------------0-0-0-------------------0-0-0--0--0-0-0--0--0-0-0--0--|

e|-------------------------------------------------------------------------|
B|-------------------------------------------------------------------------|
G|-------------------------------------------------------------------------|
D|-------------------------------------------------------------------------|
A|-8-8-8-8-8-8-8-8-10-0-0-0-10-10-10-10-10-10-10-10-12-0-0-0---------------|
E|--------------------0-0-0----------------------------0-0-0---------------|

e|----------------------------------------------------|
B|----------------------------------------------------|
G|----------------------------------------------------|
D|-17-15-14-15--14-12-14--12-10-8-7-8-7---------------|
A|----------------------------------------------------|
E|----------------------------------------------------| x2

e|-------------------------------------------------------------------------|
B|-------------------------------------------------------------------------|
G|-------------------------------------------------------------------------|
D|-------------------------------------------------------------------------|
A|-8-8-8-8-8--10-10-10-10--------------------------------------------------|
E|-8-8-8-8-8--10-10-10-10--------------------------------------------------|

e|---------12h15p12------12h15p12------13h17p13------13h17p13-----------|
B|-------13--------13--13--------13--13--------15--15--------15---------|
G|----12-------------12------------12------------14------------14-------|
D|--14------------------------------------------------------------------|
A|----------------------------------------------------------------------|
E|----------------------------------------------------------------------| x2

(Then filler part between sweeps which i'm not sure of yet how to play)

e|---------17h20p17------17h20p17------18h22p18------18h22p18-----------|
B|-------18--------18--18--------18--18--------20--20--------20---------|
G|----17-------------17------------17------------19------------19-------|
D|--19------------------------------------------------------------------|
A|----------------------------------------------------------------------|
E|----------------------------------------------------------------------| x2

e|--18h20-18-17-17h18-17-15-15h17-15-13-12-12^-----------------------------|
B|-------------------------------------------------------------------------|
G|-------------------------------------------------------------------------|
D|-------------------------------------------------------------------------|
A|-------------------------------------------------------------------------|
E|-------------------------------------------------------------------------|

e|---------12h15p12------12h15p12------13h17p13------13h17p13-----------|
B|-------13--------13--13--------13--13--------15--15--------15---------|
G|----12-------------12------------12------------14------------14-------|
D|--14------------------------------------------------------------------|
A|----------------------------------------------------------------------|
E|----------------------------------------------------------------------| x2

(Again, filler between sweeps which I haven't figured out)

e|--------5h8p5-------5h8p5-------6h10p6-------6h10p6-------------------|
B|------6-------6---6-------6---6--------8---8--------8-----------------|
G|----5-----------5-----------5------------7------------7---------------|
D|--7-------------------------------------------------------------------|
A|----------------------------------------------------------------------|
E|----------------------------------------------------------------------| x2

e|--6h8-6-5-5h6-5-3-3h5-3-1------------------------------------------------|
B|--------------------------3-3^-------------------------------------------|
G|-------------------------------------------------------------------------|
D|-------------------------------------------------------------------------|
A|-------------------------------------------------------------------------|
E|-------------------------------------------------------------------------|

Hope this inspires you guys to help figure out the rest of this song!
Tap to rate this tab
# A B C D E F G H I J K L M N O P Q R S T U V W X Y Z