Song name
# A B C D E F G H I J K L M N O P Q R S T U V W X Y Z

Conducting From The Grave - Eternally Gutted tab

I learnt this from John, the guitarist, in a lesson i had with him. Its one of there 
songs so i thought i should post it for anyone who wants to learn it. They play in drop c i think.

[ ]= pinch harmonic

Riff 1:
|--------------------------------------------------------|
|--------------------------------------------------------|
|----------------------7-7-7-----------------------------|
|-------9-9-9----------------10-9-7-9-7----9-7----7------|
|-7-7-7-------10-10-10------------------10-----10---10-9-|
|--------------------------------------------------------|

|--------------------------------------------------------|
|--------------------------------------------------------|
|-------------------5-5-5--------------------------------|
|-------7-7-7-------------9-7-5-7-5---7-5----------------|
|-5-5-5-------9-9-9-----------------9-----9-[5]----------|
|--------------------------------------------------------|


Riff 2:
|--------------------------------------------------------|
|--------------------------------------------------------|
|----------------------7-7-7-----------------------------|
|-------9-9-9----------------10-9-7-9-7----9-7----7------|
|-7-7-7-------10-10-10------------------10-----10---10-9-|
|--------------------------------------------------------|

|-------------5-------------------2h5p2-------------------------|
|-----------7---7----------------3------3---------------8-7-8---|
|-------4h7-------7-4----------2----------2-----------7-------9-|
|-----5---------------5------4--------------4-------9-----------|
|-3h7-------------------7-\5------------------5-/10-------------|
|---------------------------------------------------------------|


Riff 2 ending A:
---------------------------|
----------12----12---------|
-------11----14----[12]----|
----12---------------------|
-14------------------------|
---------------------------|

Riff 2 ending B:
--------7-------------8----|
------8---8--------10---10-|
----9-----------11---------|
-10----------12------------|
---------------------------|
---------------------------|


Riff 3:
-7005007008007005007008-------------------------------|
------------------------8-0-7-0-7-8-10-8-0-7-0-7-8-10-|
------------------------------------------------------|
------------------------------------------------------|
------------------------------------------------------|
------------------------------------------------------|
------------------------------------------------------|

-7005007008007005007008-------------------------------|
------------------------8-0-7-0-7-8-10-8-0-7-0-7-8-10-|
------------------------------------------------------|
------------------------------------------------------|
------------------------------------------------------|
------------------------------------------------------|

------------------------------------------------10-8-7h8p7----------|
-8---7---7-8-/10-8---7---7-8-/10-8---7---7-8-10------------10-8-7-8-|
---5---5-----------5---5-----------7-- 7----------------------------|
--------------------------------------------------------------------|
--------------------------------------------------------------------|
--------------------------------------------------------------------|


Riff 4:
-------------------------------------------------------------------|
-------------------------------------------------------------------|
-----------------5---4---------------------------------------------|
-----5---4---5-----------5---4h5-----2---1---------------1h2p1-----|
---------------------------------------------3---2---3---------3-2-|
-0-0---0---0---0---0---0---0-----1-1---1---1---1---1---1-----------|

-------------------------------------------------------------------|
-------------------------------------------------------------------|
-----------------5---4---------------------------------------------|
-----5---4---5-----------5---4h5-----------------------------------|
-------------------------------------7---6h7-6-----7---6h7-6-------|
-0-0---0---0---0---0---0---0-----5-5---5-------4-4---4-------------|

i dont remember the rest, but if you can play this you should be able to figure it out.
Tap to rate this tab
 
# A B C D E F G H I J K L M N O P Q R S T U V W X Y Z