Conducting From The Grave - From Ruins We Rise tab

This is a continuation from Brydon's tab as well, although I have reworked
 a lot of the positions to make it easier to play and to make more sense.
 Although this is not the entire song, this fills in most of the gaps. 
Cheers.

| s  slide 
| t  tap
| h  hammer-on
| p  pull-off
| ~  vibrato
| +  harmonic
| x  Mute note
| ^  Bend


Tuning: Dropped C

e|--------------------------------------------------------------------|
B|--------------------------13-11-10--13-11p10-11-10----10------------|
G|-s14-12-10h12p10-9-10-12---------------------------12----12---------|
D|--------------------------------------------------------------------|
A|--------------------------------------------------------------------|
E|--------------------------------------------------------------------|

                                            |----------------1------------- 

e|------------------------------------------|------------------------------|
B|------------------------------------------|------------------------------|
G|------------------------------------------|------------------------------|
D|------------------------------------------|-8----8----12----10----8------|
A|-8-----8-----8h10h12--8-----8-----8h10h12-|---10---10----10----10---10---|
E|---0-0---0-0------------0-0---0-0---------|------------------------------|
 
 --------------|------------------2------------------------|

E--------------|-------------------------------------------|
B|-------------|-------------------------------------------|
G|-------------|-------------------------------------------|
D|-8----8-7----|---8----8----10----10----12----12----14----|
A----10-----8--|-----10---10----12----12----13----13-------|
E|-------------|-------------------------------------------|

Missing a bit here, then:
                               (x2)
E|-----------------------------------|-------------------------------|
B|-----------------------------------|-------------------------------|
G|-----------9s12s9------------------|-------------------------------|
D|------7s10--------10s7-------7s10--|--555555--88888--77777--5--10+-|
A|--5s8------------------8s5s8-------|-------------------------------|
E|-----------------------------------|-------------------------------|

Missing a little more here.

e|---------------------------------------------------------------------|
B|---------------------------------------------------------------------|
G|---------------------------------------------------------------------|
D|---0-0-0-0-0-0-7-7-7-------10-10-10----------14-14-14----------------|
A|---------------------8-8-8----------12-12-12----------15-15-15-------|
E|---------------------------------------------------------------------|



e|-------------------------------------------------------------------------|
B|-------------------------------------------------------------------------|
G|-------------------------------------------------------------------------|
D|-------------------------5-5-5-------------------------------------------|
A|-------------5-5-5-8-8-8--------8-8-8-7-7-7-8-8-8------------------------|
E|-5-5-5-8-8-8-------------------------------------------------------------|


e|-------------------------------------------------------------------------|
B|-------------------------------------------------------------------------|
G|-------------------------------------------------------------------------|
D|--------------5-5-5-7-7-7-8-8-8-7-7--5-5-5-------------------------------|
A|-5-5-5-8-8-8--------------------------------8-8-8------------------------|
E|-------------------------------------------------------------------------|

e|-------------------------------------------------------------------------|
B|-------------------------------------------------------------------------|
G|-------------------------------------------------------------------------|
D|-------------------------5-5-5-------------------------------------------|
A|-------------5-5-5-8-8-8--------8-8-8-7-7-7------------------------------|
E|-5-5-5-8-8-8--------------------------------8-8-8------------------------|

e|-------------------------------------------------------------------------|
B|-------------------------------------------------------------------------|
G|-------------------------------------------------------------------------|
D|-10-10-10-8-8-8-7-7-7-8-8-8-7-7-7-5-5-5-7-7-7----------------------------|
A|----------------------------------------------8-8-8----------------------|
E|-------------------------------------------------------------------------|

Another little piece:

e|---------------------------------------|
B|---------------------------------------|
G|---------------------------------------|
D|---------------------------------------|
A|-----8------10-----12---12---12-13-12--|
E|-0-8---0-10----0-0----0----0-----------|

e|-------------------------------------------------------------------------|
B|-------------------------------------------------------------------------|
G|-------------------------------------------------------------------------|
D|-------------------------------------------------------------------------|
A|-3-3-3-3-3-3-3-3-5-0-0-0-3-3-3-3-3-3-3-3-5-0-0-0--0--0-0-0--0--0-0-0--0--|
E|-------------------0-0-0-------------------0-0-0--0--0-0-0--0--0-0-0--0--|

e|-------------------------------------------------------------------------|
B|-------------------------------------------------------------------------|
G|-------------------------------------------------------------------------|
D|-------------------------------------------------------------------------|
A|-8-8-8-8-8-8-8-8-10-0-0-0-10-10-10-10-10-10-10-10-12-0-0-0---------------|
E|--------------------0-0-0----------------------------0-0-0---------------|

e|----------------------------------------------------|
B|----------------------------------------------------|
G|--s12-10-9-10--9----9-------------------------------|
D|-----------------12----12-10-8—7h8-7----------------|
A|----------------------------------------------------|
E|----------------------------------------------------| x2

Here’s the part before the sweeps:

E|-------------------------------------|
B|-------------------------------------|
G|------------9h10p9-------------------|
D|----7-10s12--------12s10-------------|
A|-------------------------------------|
E|-------------------------------------| x2

Then repeat down two frets (I think)

Ok so now the big one---the sweeps on other version were TOTALLY 
inaccurate. Here's how to do them.

First off...all are three string patterns except the filler riff. And all 
start on bottom string:

e|--17p13------13h17p13------12h15p12------12h15p12------15s20p17-----17h-|
B|-------15--15--------15--15--------13--13--------13--13--------18--18---|
G|---------14------------14------------12------------12------------17-----|
D|------------------------------------------------------------------------|
A|------------------------------------------------------------------------|
E|------------------------------------------------------------------------|

                                                    *tap with pick 

e|--20p17--------17-15h17p15--------|-------17h18h20t22p20p18p17---------|
B|-------18--18--------------18-17--|-----18--------------------18-------|
G|---------17-----------------------|---19------------------------19-----|
D|----------------------------------|-19---------------------------------|
A|----------------------------------|------------------------------------|
E|----------------------------------|------------------------------------| x2

Then a basic three note descending pattern that I don't have totally worked out.

One part was close for the second run, but start at the bottom instead...
still may not be 100% but it sounds okay

e|---5h8p5-----5h8p5-----6h10p6-----6h10p6-------6-----------|
B|--------6--6------6--6--------8--8-------8---8-------------|
G|----------5---------5-----------7----------7---------------|
D|-----------------------------------------------------------|
A|-----------------------------------------------------------|
E|-----------------------------------------------------------|

Ending section:

e|--17p13------13h17p13------13-15p12-------15-12~--13p10------10h13p10--|
B|-------15--15--------15--15--------13--13--------------11--11----------|
G|---------14------------14------------12------------------10------------|
D|-----------------------------------------------------------------------|
A|-----------------------------------------------------------------------|

e|-------10-12p8-------8---------------------|
B|-11--11-------10--10--10~------------------|
G|---10------------9-------------------------|
D|-------------------------------------------|
A|-------------------------------------------|
                                                     
There ya go. Good luck 
Tap to rate this tab
 
# A B C D E F G H I J K L M N O P Q R S T U V W X Y Z