Song name
# A B C D E F G H I J K L M N O P Q R S T U V W X Y Z

Conducting From The Grave - When Two Blood Types Coalesce tab

Conducting from the grave
When two blood types coalesce
C#-G#-C#-F#-A#-D#
I tabbed whats heard on the left side

Riff 1 (2 lines)2 repeats 0:00-0:31
--------------------------------------------------------|
--------------------------------------------------------|
--7-----10--9--------7--9------5--7---------------------|
---------------10----------8----------7-----5-----------|
--------------------------------------------------------|
--------------------------------------------------------|


--------------------------------------------------|end-|
--------------------------------------------------|----|
--7-----10--9--------7--9------9--10--------12--10|-7--|
---------------10----------8----------10----------|----|
--------------------------------------------------|----|
--------------------------------------------------|----|


Riff 2 (2 lines)3 repeats  0:32-0:53
------------------------------------------------------------------------|
--------------------------------------------_----------------_----------|
-----------------------------_-----_-------/ \-------_------/ \------_--|
--^------^------^-----^-----/ \---/ \-----5-7-5-----/ \----5-7-5----/ \-|
-3-5-**-7-8-**-3-5-*-7-8-*-7-8-7-7-8-7-**-------**-7-8-7-*-------*-7-8-7|
-----00-----00-----0-----0-------------00-------00-------0-------0------|


--------------------------------------------|
-----------------8888--------1111010881010--|
-7777777710101010----99999999---------------|
--------------------------------------------|
--------------------------------------------|
--------------------------------------------|


Riff 3 (2 lines) 0:53-1:00
------------------------------------------------------------------------|
--------------------------------------------_----------------_----------|
-----------------------------_-----_-------/ \-------_------/ \------_--|
--^------^------^-----^-----/ \---/ \-----5-7-5-----/ \----5-7-5----/ \-|
-3-5-**-7-8-**-3-5-*-7-8-*-7-8-7-7-8-7-**-------**-7-8-7-*-------*-7-8-7|
-----00-----00-----0-----0-------------00-------00-------0-------0------|


----------------------------------------------|
----------------------------------------------|
----------------------------------------------|
----------------------------------------------|
---------88887777-----------------10-8-7-8----|
-88888888--------1010101010101010-------------|


Riff 4 1:00-1:04
-------------------------------------------------------------|
----------------------------------------------------------ph~|
----------------------------------------------------------7--|
-----------------------------------------5555555588888888----|
-------------------------4444444477777777--------------------|
-222222225555555588888888------------------------------------|


Riff 5 (2 lines)2 repeats 1:04-1:21                  _
----------------------------------------------------/ \-------8-10-|
--------------------------------------_-----------10-8-6-8-6-------|
-------------------------------------/ \------10-------------------|
-----7777555588887777--------------10-8-7-8-7----------------------|
-5555----------------888877778888----------------------------------|
-------------------------------------------------------------------|

                                                    
-------------------------------------------------------------------|
--------------------------------------_-------------_--------------|
-------------------------------------/ \-----------/ \-------------|
-----7777555588887777--------------10-8-7-8-7-8---8-7-5-5-7-5------|
-5555----------------888877778888----------------------------------|
-------------------------------------------------------------------|


Riff 6  1:22-1:41 4 times
-----------------------------------------------------------------------|end-|
-----------------------------------------------------------------------|~-~-|
------------------------------------_-------_---6----__---------__---10|--9-|
-----7777----777755558888----5555--/ \--8--/ \------/  \---12--/  \----|----|
-5555----8888------------7777-----0-7-8---0-7-8----0-10-12----0-10-12--|----|
-----------------------------------------------------------------------|----|

Riff 7 (4 lines) 1:42-2:04
-------------------------------------------------|
-------------------------------------------------|
-------------------------------------------------|
-*-*-*---------*-*-*---------*-*-*--------*-*-*--|
-0-0-0---------0-0-0---------0-0-0--------0-0-0--|
-0-0-0---------0-0-0---------0-0-0--------0-0-0--|

-----------------------------------------------------------|
-----------------------------------------------------------|
-----------------------------------------------------------|
-*-*-*---*-*-*-------*-*-*-------*-*-*---*-*-*-------*-*-*-|
-0-0-0---0-0-0-------0-0-0-------0-0-0---0-0-0-------0-0-0-|
-0-0-0---0-0-0-------0-0-0-------0-0-0---0-0-0-------0-0-0-|


-------------------------------------------------------------|
-------------------------------------------------------------|
-------------------------------------------------------------|
-*-*--4---2-4---4---2-4---7---5-7-----4---2-4---4---2-4---ph~|
-0-0--5-*-4/5-*-5-*-4/5-*-8-*-7/8-*-*-5-*-4/5-*-5-*-4/5-*-5--|
-0-0----0-----0---0-----0---0-----0-0---0-----0---0-----0----|

-------------------------------------------------------|
-------------------------------------------------------|
-------------------------------------------------------|
-*-*--4---2-4---4---2-4---7---5-7-----4---2-4---2------|
-0-0--5-*-4/5-*-5-*-4/5-*-8-*-7/8-*-*-5-*-4/5-*-4------|
-0-0----0-----0---0-----0---0-----0-0---0-----0--------|


Riff 8 2 times 2:04-2:13
--------------------------------------------------|
--------------------------------------------------|
--------------------------------------------------|
-*****--*-*-*---*****----*****--*-*-*---*****-----|
-00000--0-0-0---00000----00000--0-0-0---00000-----|
-00000--0-0-0---00000----00000--0-0-0---00000-----|


Riff 9 (3 lines) 2:14-2:25
-------__---------|-----------------------------------------|
------/  \---8-10-|-----------------------------------------|
-/10-9-10-9-------|---7-7-7-7-10-10-9-9-------------7-7-9-9-|
------------------|---------------------10-10-10-10---------|
------------------|-----------------------------------------|
------------------|-----------------------------------------|
                                 __
--------------------------_-----/  \------|
-------------------_-----/ \---8-10-11-10-|
---------5-5-7-7--/ \---7-9-10------------|
-8-8-8-8---------7-9-10-------------------|
------------------------------------------|
------------------------------------------|


----------------------------------------------------------------__----------|
---------------------------------------------------------------/  \---------|
-7-7-7-7-10-10-9-9-------------7-7-9-9---------9-9-10-10-----12-10-9-10-9---|
-------------------10-10-10-10---------8-8-8-8-----------10---------------10|
----------------------------------------------------------------------------|
----------------------------------------------------------------------------|

Riff 10= riff 9 tremelo picked 2:26-2:36

Riff 11 2:36-2:41
----------------------------------------------|
----------------------------------------------|
----------^--------------^--------------------|
----^----7-8-----^-----10-12-----------sph~---|
-*-7-8-*-----*-10-12-*-------***-*-*-*--8-----|
-0-----0-----0-------0-------000-0-0-0--------|


Riff 3 repeats


Riff 12 (2 lines) 2:56-3:21
line 1 2 times,line 2 1 time,line 1 2 times,line 2 2 times
---------------------------------------------------------------|
----------------------------------------------_----------------|
-------------------------^-------------------/ \---------------|
--^-------^------^------5-7----^-------^---10-8-7-8-7-------^--|
-3-5-*-*-7-8----3-5-*-*-------3-5-*-*-7-8-------------10-8-7-8-|
-----0-0------------0-0-----------0-0--------------------------|


-----------------------------------|
-----------------------------------|
-----------------------------------|
---------77775555---------8-7-5-7--|
-55555555--------77777777----------|
-----------------------------------|

3:21-3:24
----------------------|
----------------------|
-----------------7-6--|
-----------------x-x--|
-***-***-***-***-5\4--|
-000-000-000-000------|


Riff 13 repeats 6 times 3:24-3:55
-----------------------------------------------------------------------------|--|
-----------------__------------------_-------------------_----------------_--|--|
---------__-----/  \----------_-----/ \------------_----/ \----------_---/ \-|--|
--------/  \---8-10-12-------/ \---7-8-10---------/ \--5-7-8--------/ \-4-5-7|*-|
-******8-10-12--------******7-8-10--------******-5-7-8-------******4-5-7-----|0-|
-000000---------------000000--------------000000-------------000000----------|0-|

Solo
3:55                                                                            3:59
      __
-----/  \---------------------------------13-17-13----------------15-12-18-12-15-12-|
----8-10-8--------------10/14-----------15---------15-11-15-14-17-------------------|
-----------9----------10-----15-12-14-15--------------------------------------------|
--12--------10----8-12--------------------------------------------------------------|
-x------------12--------------------------------------------------------------------|
------------------------------------------------------------------------------------|

4:00                                                                               4:02
                     __
--^--))))))))))))---/  \-----------------------------------------------------------------|
14-15151515151515-14-15-14---------------))))--------------------------------------------|
---------------------------1515141414141414141414141517171515151514141414----------------|
-------------------------------------------------------------------------1717171715151515|
-----------------------------------------------------------------------------------------|
-----------------------------------------------------------------------------------------|

4:03                                             4:05

-------------__--------------__-------~-17-20-17--18-15----------------|
----__------/  \-----__-----/  \----15-----------------17--------------|
---/  \---14-15-17--/  \--14-15-17-----------------------18-15---------|
-14-15-17---------14-15-17------------------------------------17-14----|
-------------------------------------------------------------------15--|
-----------------------------------------------------------------------|

4:06                                 4:08

            ^                   ^
----------10-13---------------12-15------|
--------11-----11-----------13-----13----|
------11------------------13---------12--|
----12-----------12-----14---------------|
--13------------------15-----------------|
-----------------------------------------|
 
4:08                                                            4:11
                                      ___      ___________                  
                                     /   \    /           \                         
-----------------------13-10-17----13-15-17-13-15-13-12-13-12--------|
-----------------14-10---------15-----------------------------15-13--|
-----------14--------------------------------------------------------|
-/12----12----12-----------------------------------------------------|
---------------------------------------------------------------------|
---------------------------------------------------------------------|
 
4:11                                              4:13 
    __       ___________             __                             
---/  \-----/           \-----------/  \---------------|
-11-13-15-11-13-11-10-11-10----10-10-11-10-------------|
----------------------------12-------------12-10-------|
-------------------------------------------------12----|
-------------------------------------------------------|
-------------------------------------------------------|

4:13-                                                        4:17

------------)(--------------)(-----///-///-///-///-///------------|
----15-17-16--------13-15-13----11-13--11--10--11--8--///-///-///-|
-14------------(17)------------------------------------10-9---10--|
------------------------------------------------------------------|
------------------------------------------------------------------|
------------------------------------------------------------------|

 
Riff 14 2 repeats 4:17-4:26
---------------------------------------------|
-----------^---------------------------------|
-7----7\6-7-9----9/10---------9/10-------10--|
---------------------10\8------------7-------|
---------------------------------------------|
---------------------------------------------|


Riff 15 4:26-4:35

-----5-8-10-8-5--------6-9-12---------------8--------------------------------|
---6------------6----8--------10-8------------11-10--------------8-----------|
-7-----------------9----------------10---10---------10-9----9-10---10-9-10-9-|
---------------------------------------8-----------------10------------------|
-----------------------------------------------------------------------------|
-----------------------------------------------------------------------------|
                                __   
                               /  \
-----5-8-10-8-5--------6-9-12-9-12-9---------------8-----------------------------|
---6------------6----8---------------10----10---10---11-10--------/\---/\--------|
-7-----------------9--------------------9-----8------------10-9--7970-5750--/\---|
---------------------------------------------------------------------------8108-7|
---------------------------------------------------------------------------------|
---------------------------------------------------------------------------------|

Riff 16 4:35-4:48 
(3 lines)
--------------------------------------------------------------------------------------|
--------------------------------------------------------------------------------------|
--T--^---T--^---T--^---T--^---T--^---T--^---T--^---T--^---T--^---T--^---T--^---T--^---|
-12-7-8-12-7-8-12-7-8-12-7-8-14-7-8-14-7-8-14-7-8-14-7-8-15-7-8-15-7-8-15-7-8-15-7-8--|
--------------------------------------------------------------------------------------|
--------------------------------------------------------------------------------------|

------------------------------------------------------------------------------------|
------------------------------------------------------------------------------------|
-T--^---T--^---T--^---T--^---T--^---T--^---T--^---T--^---T--^---T--^---T--^---T--^--|
17-7-8-15-7-8-14-7-8-15-7-8-12-7-8-12-7-8-12-7-8-12-7-8-14-7-8-14-7-8-14-7-8-14-7-8-|
------------------------------------------------------------------------------------|
------------------------------------------------------------------------------------|

-------------------------------------------------------------------------------------------------|
-------------------------------------------------------------------------------------------------|
--T--^---T--^---T--^---T--^---T--^---T--^---T--^---T--^-------------------/14-14-15-14--14-15-14~|
-15-7-8-17-7-8-15-7-8-14-7-8-15-7-8-17-7-8-15-7-8-14-7-8--/12-/14-/15-/17------------------------|
-------------------------------------------------------------------------------------------------|
-------------------------------------------------------------------------------------------------|

Riff 17 repeats 2 times 4:48-5:05
------------------------------------------------------------------------------------------------|
------------__--------------------------_-------------------------------------------------------|
-----------/  \------------------------/ \-----------------------____---------------------------|
----------8-10-8-7-8-7----------------7-8-7-5-7-5---------------/    \-//////////////////-8-7~--|
-1st--*-*--------------10-8-7-----*-*-------------8-7-5----*-*-8/10\8\7-8--7--8--10-8--7--------|
-0----0-0---------------------11--0-0-------------------8--0-0----------------------------------|

Riff 18 5:05-5:21 2 lines
----------------------------------------------------------------------|
----------------------------------------------------------------------|
----------------------------------------------------------------------|
--------------------------------------------////////////////--8-7~----|
-*-*--***---7----*-*-***--------*-*-***-----8--7--8--10-8--7----------|
-0-0--000--------0-0-000--------0-0-000-------------------------------|

-------------------------------------------------------------------------------|
-------------------------------------------------------------------------------|
-------------------------------------------------------------------------------|
--------------------------------------------////////////////-----8-7-8-10-8-7--|
-*-*--***---7----*-*-***--------*-*-***-----8--7--8--10-8--7------------------7|
-0-0--000--------0-0-000--------0-0-000----------------------11----------------|


Riff 19 5:21-end
-------------------------------------------------------------------------------|
-------------------------------------------------------------------------------|
-------------------------------------------------------------------------------|
------------------^---^---^---^---^---^---^---^--------------------------------|
-***-***-***-***-5-8-5-8-4-7-4-7-5-8-5-8-4-7-4-7-***-***-***-***-*-*-*-*-*-*-*)|
-000-000-000-000---------------------------------000-000-000-000-8-7-5-7-5-0-3-|

--------------------------------------------------------------------------------|
--------------------------------------------------------------------------------|
--------------------------------------------------------------------------------|
------------------^---^---^---^---^---^---^---^------------------------------ph)|
-***-***-***-***-5-8-5-8-4-7-4-7-5-8-5-8-4-7-4-7-***-***-***-***-*-*-*-*-*-*-5--|
-000-000-000-000---------------------------------000-000-000-000-8-7-5-7-5-0----|

Tap to rate this tab
# A B C D E F G H I J K L M N O P Q R S T U V W X Y Z