Song name
# A B C D E F G H I J K L M N O P Q R S T U V W X Y Z

Conducting From The Grave - When Legends Become Dust tab

guitar on the left
CGCFAD

* = Palm mute


----------------------------------------------------------------------|
----------------------------------------------------------------------|
----------------------------------------------------------------------|
--0----1--3-----------------------------------------------------------|
--0----1--3-----------------------------------------------------------|
--0----1--3-----------------------------------------------------------|

Part A
----------------------------------------------------------------------|
----------------------------------------------------------------------|
--------------------5---7---------------------------------------------|
----5-------7---------------7-----------------------------------------|
-**---*-6-*---*-8-*---*---*-------------------------------------------|
-55---5---5---5---5---5---5-------------------------------------------|

Part B
----------------------------------------------------------------------|
----------------------------------------------------------------------|
----------------------------------------------------------------------|
-----------------5----------------------------------------------------|
-*-6-5-6-8-6-5-6---6-5-6-8-6-5-6--------------------------------------|
-5--------------------------------------------------------------------|

Repeat Part A

Part C
----------------10h13p10-------------------------13h18----------------|
-------------------------11-------------------15----------------------|
-------------12----------------------------15-------------------------|
----------12----------------12----------15----------------------------|
-------13----------------------13-13h17-------------------------------|
-13h15----------------------------------------------------------------|

Repeat Part A

Part D
----------------------------------------------------------------------|
----------------------------------------------------------------------|
----------------------------------------------------------------------|
----------------------------------------------------------------------|
----------------------------------------------------------------------|
-0-1-0-1-2-1-0-1-5-1-0-1-2-1-0-1--------------------------------------|

Repeat Part A

Part E
----------------------------------------------------------------------|
----------------------------------------------------------------------|
----------------------------------------------------------------------|
-10-6-10-6-10-6---------8-5-8-5-8-5---------6-3-6-3-6-3---------------|
----------------------------------------------------------------------|

----------------------------------------------------------------------|
----------------------------------------------------------------------|
----------------------------------------------------------------------|
----------------------------------------------------------------------|
-5-1-5-1-5-1----------------------------------------------------------|
----------------------------------------------------------------------|

Part F
----------------------------------------------------------------------|
----------------------------------------------------------------------|
----------------------------------------------------------------------|
----------7-8-7------------------7-8-7--------------------------------|
-10-9-10---------10-9----10-9-10--------10-9--------------------------|
----------------------------------------------------------------------|

-----------------------------------------|[After 2nd Time]------------|
-----------------------------------------|----------------------------|
-----------------------------------------|-----------7----------------|
-----------------------------------------|---8---7---8----------------|
-***-6**6------***-9**9------------------|---6---8---10------1--1--5--|
-444--44-------777--77-------------------|-------------------1--3--5--|

Part G 4X
---------------------------------10h15p10-----------------------------|
----------------------------8/11----------11--------------------------|
-----10-------8h7---------7-------------------------------------------|
---8--------8-----8-----8---------------------------------------------|
6-------6-8---------10------------------------------------------------|
----------------------------------------------------------------------|

----------------------------------------------------------------------|
----------------------------8--11p8-10p8------------------------------|
-----7--------------------7--------------10p7-8p7---------------------|
---5-------5--8p7-------8---------------------------------------------|
3------3-6--------8-10------------------------------------------------|
----------------------------------------------------------------------|


Part H
----------------------------------------------------------------------|
----18---16-15-----------------18--16-15------------------------------|
-15------------15---14------15-----------15-17--19-17-15--------------|
-----------------------15---------------------------------------------|
----------------------------------------------------------------------|
----------------------------------------------------------------------|
Part I
----------------------------------------------------------------------|
----------------------------------------------------------------------|
-*-*-*-*------7p0----5p0----3p0----5p0----3p0----2p0----3p0----2p0----|
-5-5-5-5--------------------------------------------------------------|
-5-5-5-5--------------------------------------------------------------|
-5-5-5-5--------------------------------------------------------------|


----------------------------------------------------------------------|
----------------------------------------------------------------------|
-*-*-*-----/3--2--0-2--3-------------*-*-*-*--*-*-*-*-*--*-*-*--------|
-3-3-3-3-----------------------------1-1-1-1--1-1-1-1-1--3-3-3-3------|
-3-3-3-3-----------------------------1-1-1-1--1-1-1-1-1--3-3-3-3------|
-3-3-3-3-----------------------------1-1-1-1--1-1-1-1-1--3-3-3-3------|

-----------------------10--8--6h8-/10---------------------------------|
-/8---6h8--/10---8h10-------------------------------------------------|
----------------------------------------------------------------------|
----------------------------------------------------------------------|
----------------------------------------------------------------------|
----------------------------------------------------------------------|

Part J
 T       T        T        T         T        T        T        T
22p10h15-20p10h15-18p10h15-20p10h15-[18p10h15-17p10h15-18p10h15-20p10h15-|
-------------------------------------[Repeat 2x]-------------------------|
-------------------------------------------------------------------------|
-------------------------------------------------------------------------|
-------------------------------------------------------------------------|
-------------------------------------------------------------------------|
T       T       T       T       T       T       T       T
18p8h13-17p8h13-18p8h13-20p8h13-18p8h13-17p8h13-18p8h13-17p8h13-------|
----------------------------------------------------------------------|
----------------------------------------------------------------------|
----------------------------------------------------------------------|
----------------------------------------------------------------------|
----------------------------------------------------------------------|
T       T       T       T       T   T       T       T       T       T
15p8h13-15p8h13-15p8h13-15p8h13-15--17p8h13-17p8h13-17p8h13-17p8h13-17-|
[Fast.]----------------------------------------------------------------|
-----------------------------------------------------------------------|
-----------------------------------------------------------------------|
-----------------------------------------------------------------------|
-----------------------------------------------------------------------|
T       T       T       T       T       T       T       T
15p5h11-14p5h11-15p5h11-17p5h11-18p5h11-17p5h11-15p5h11-14p5h11-------|
----------------------------------------------------------------------|
----------------------------------------------------------------------|
----------------------------------------------------------------------|
----------------------------------------------------------------------|
----------------------------------------------------------------------|
T       T       T       T       T       T       T       T
15p5h11-14p5h11-15p5h11-17p5h11-18p5h11-17p5h11-15p5h11-17p5h11-------|
----------------------------------------------------------------------|
----------------------------------------------------------------------|
----------------------------------------------------------------------|
----------------------------------------------------------------------|
----------------------------------------------------------------------|
T       T       T       T       T       T       T       T
18p8h13-17p8h13-18p8h13-20p8h13-18p8h13-17p8h13-18p8h13-17------------|
----------------------------------------------------------------------|
----------------------------------------------------------------------|
----------------------------------------------------------------------|
----------------------------------------------------------------------|
----------------------------------------------------------------------|

-----------------------10--8--6h8-/10---------------------------------|
-/8---6h8--/10---8h10-------------------------------------------------|
----------------------------------------------------------------------|
----------------------------------------------------------------------|
----------------------------------------------------------------------|
----------------------------------------------------------------------|

Listen for timing
----------------------------------------------------------------------|
----------------------------------------------------------------------|
-*--------------------------------------------------------------------|
-0--------------------------------------------------------------------|
-0--------------------------------------------------------------------|
-0--------------------------------------------------------------------|

Part K
----------------------------------------------------------------------|
----------------------------------------------------------------------|
----------------------------------------------------------------------|
-8-7-7------------8-7-7-----------------------------------------------|
-6-8-5--8-10-7----6-8-5--8-7-10---------------------------------------|
--------8-10-7-----------8-7-10---------------------------------------|


-17b------------------------------------------------------------------|
-----15-18------------------------------------------------------------|
-----------17-19-15-14------------------------------------------------|
-----------------------15-14----17------------------------------------|
-----------------------------15---------------------------------------|
----------------------------------------------------------------------|

-17b------------------------------------------------------------------|
-----15-18------------------------------------------------------------|
-----------17-19-15-14------------------------------------------------|
-----------------------15-14----14h15p14------------------------------|
-----------------------------15---------15----------------------------|
----------------------------------------------------------------------|

Part L 4X
--------------------------------------------17h22p17------------------|
--------------------------------------15/18----------18---------------|
-----17-----------15h14-----------14----------------------------------|
---15----------15-------15-----15-------------------------------------|
13-------13-15-------------17-----------------------------------------|
----------------------------------------------------------------------|


----------------------------------------------------------------------|
----------------------------------15--18p15-17p15---------------------|
-----14-------------------------14----------------17p14-15p14---------|
---12---------12--15p14-------15--------------------------------------|
10------10-13-----------17-19-----------------------------------------|
----------------------------------------------------------------------|


----------------------------------------------------------------------|
----------------------------------------------------------------------|
-------17-------14----------------------------------------------------|
----15-------14-----15----14-12-10------------------------------------|
-13-------15--------17----15-13-12------------------------------------|
----------------------------------------------------------------------|


Part M
-----------------------------------------------------------------------|
-----------------------------------------------------------------------|
-----------------------------------------------------------------------|
-----------------------------------------------------------------------|
---------------5**5-**-5h6---------------------------------------------|
55-8-5-7-5-8-5--55--55--------33333333-4444-77-88-----1111111111111111-|

----------------------------------------------------------------------|
----------------------------------------------------------------------|
----------------------T-------T--------T-------T-------T-------T------|
------------7h8h10----15-7h8--12-7h8---13-7h8--12-7h8--10-7h8--12-7h8-|
--6h8h10--------------------------------------------------------------|
----------------------------------------------------------------------|

Repeat Part M 2X

Part N
----------------------------------------------------------------------|
----------------------------------------------------------------------|
-------------------10-------------------------------------------------|
-88-12-8-10-8-12-8----8-12-8-10-8-12-8--------------------------------|
----------------------------------------------------------------------|
----------------------------------------------------------------------|

----------------------------------------------------------------------|
----------------------------------------------------------------------|
----------------------------------------------------------------------|
-1010-13-10-12-10-13-10----1212-15-12-13-12-15-12---------------------|
----------------------------------------------------------------------|
----------------------------------------------------------------------|

----------------------------------------------------------------------|
----------------------------------------------------------------------|
----------------------------------------------------------------------|
11-5-1--33-7-3--55-8-5--77-10-7---10--12--10-12-13-12-10-12-----------|
----------------------------------------------------------------------|
----------------------------------------------------------------------|

Repeat Part M 2X

Repeat Part A-F


Part O
----------------------------------------------------------------------|
-11-10----10----------------------------------------------------------|
-------12----12-10----------------------------------------------------|
-------------------12-----10-12-13-12-10-12---------------------------|
----------------------------------------------------------------------|
----------------------------------------------------------------------|

Repeat Part O

Part P
--------------------------10/13h18p13-10------------------------------|
-13-11-10-11-10--------10----------------10---------------------------|
----------------10-12-------------------------------------------------|
----------------------------------------------------------------------|
----------------------------------------------------------------------|

-------------------------10h13p10-------------------------------------|
-13-11-10-11-10-------10----------10----10----------------------------|
----------------10-12----------------10-------------------------------|
----------------------------------------------------------------------|
----------------------------------------------------------------------|

Repeat Part O x2
Repeat Part P
Repeat Part O

Ending part
----------------------------------------------------------------------|
-------11---------13--------------------------------------------------|
----12---------14-----12----------------------------------------------|
-13---------15--------------------------------------------------------|
----------------------------------------------------------------------|
----------------------------------------------------------------------|
Tap to rate this tab
# A B C D E F G H I J K L M N O P Q R S T U V W X Y Z