Song name
# A B C D E F G H I J K L M N O P Q R S T U V W X Y Z

Conducting From The Grave - Nevermore tab

nevermore solo 

cgcfad

tabbed by andherembrace



2:55

      _                        14 STAYS BENT
     / \
----5-6-5------------13------)---T-----T-----T-------|
---6------6/8----/15----15-14---22-14-20-14-18-14~~--|
--7--------------------------------------------------|
-5---------------------------------------------------|
-----------------------------------------------------|
-----------------------------------------------------|
 ***

2:58

-/10--8-6-------------11---10-8-------------13--11--10---10--11|
---------10-8--8/11------------11-10--10/13------------13------|
---------------------------------------------------------------|
---------------------------------------------------------------|
---------------------------------------------------------------|
---------------------------------------------------------------|

   3:01                                       __                     __
                             ^  )  T^        /  \                   /  \
18181817171515171715151313-13-14--18-13~~---18-22-18---18-22-20--20/22\20|
-------------------------------------------20------20-20-----------------|
------------------------------------------19--------19-------------------|
-------------------------------------------------------------------------|
-------------------------------------------------------------------------|
-------------------------------------------------------------------------|

3:05

22----22-20-18---------------17----20-18--------------------------------|
-20-20--------22-20-18-20-22--18-18-----20182018161816--16--------------|
--19---------------------------17---------------------19--1917191715-12~|
------------------------------------------------------------------------|
------------------------------------------------------------------------|
-----------------------------------------------------------------------|

3:08

---------------------------------------------------------------------------|
-------------------------)-(--------------16----15----13------------/\-----|
/12~\---1414---14-15-17-14---15-----14----------------------15----141514-10|
-------15--15------------------1213---1213--1213--1213--1213--1213---------|
------17----17-------------------------------------------------------------|
---------------------------------------------------------------------------|
                               * *    * *   * *   * *   * *   * *

3:14

------------------------------------------|
------------------------------------------|
-12---------10---------7-------7----------|
----8-10-12----8-10-12--7-8-10---10-8-7---|
------------------------------------------|
------------------------------------------|
   
3:16
          __                    __
         /  \                  /  \
--------6-10-6---------------10-13-10-----------|
-------8------8-------------11------11----------|
------7--------7-----------12--------12---------|
--^--8----------8------^--12----------12--------|
-6-10------------10--10-13-------------13-------|
------------------------------------------------|

3:18
          __                   
         /  \     T   ^   T   ^   T   ^   T   ^    
--------6-10-6---18-10-6-17-10-6-15-10-6-13-10-6--|
-------8------8-----------------------------------|
------7--------7----------------------------------|
--^--8--------------------------------------------|
-6-10---------------------------------------------|
--------------------------------------------------|

3:19
      _         _
  T  / \    T  / \        _          _
-15-6-8-10-13-6-8-10--T--/ \-----T--/ \---|
---------------------13-6-8-10------------|
---------------------------------14-7-9-11|
------------------------------------------|
------------------------------------------|
------------------------------------------|
Tap to rate this tab
# A B C D E F G H I J K L M N O P Q R S T U V W X Y Z