Song name
# A B C D E F G H I J K L M N O P Q R S T U V W X Y Z

Conducting From The Grave - Honor Guide Me tab

CONDUCTING FROM THE GRAVE

HONOR GUIDE ME INTRO

CGCFAD


TABBED BY andherembrace


------------------------------------------------------------------|
------------------------------------------------------------------|
------------------------------------------------------------------|
-------4---5---4-----------------------4---5---4-------3---4---3--|
-2-----------------2-------------2---------------1----------------|
---5-2---2---2---2---5-4-1-2-4-5---5-2---2---2-----4-1---1---1----|
   * *   *   *   *   * * * * * *   * *   *   *     * *   *   *


-----------------------------------|
-----------------------------------|
-----------------------------------|
------4---5---4--------------------|
2----------------------------------|
--5-2---2---2---2222222211111111---|
  * *   *   *   ****************



--------------------------------------------------|
--------------------------------------------------|
---___________________-----------_____________----|
--/                   \---^-----/             \---|
-3-6-3-0-3-6-9-6-3-0-3-6-3-0---0-3-6-9-6-3-0-3-6--|
-----------------------------4--------------------|
             T                       T



------------------------------------------------------------------|
------------------------------------------------------------------|
------------------------------------------------------------------|
-------4---5---4-----------------------4---5---4-------3---4---3--|
-2-----------------2-------------2---------------1----------------|
---5-2---2---2---2---5-4-1-2-4-5---5-2---2---2-----4-1---1---1----|
   * *   *   *   *   * * * * * *   * *   *   *     * *   *   *


-----------------------------------|
-----------------------------------|
-----------------------------------|
------4---5---4--------------------|
2----------------------------------|
--5-2---2---2---2222222211111111---|
  * *   *   *   ****************



------------------------------------------------------------------|
------------------------------------------------------------------|
---_______________-----------_______________-----------_______----|
--/               \---------/               \---------/       \---|
-3-6-3-0-3-6-9-6-3-0--0-0--3-6-3-0-3-6-9-6-3-0--0-0--3-6-3-0-3-6--|
------------------------------------------------------------------|
             T      |  | |             T      |  | |



------------------------------------------------------------------|
------------------------------------------------------------------|
------------------------------------------------------------------|
-------4---5---4-----------------------4---5---4-------3---4---3--|
-2-----------------2-------------2---------------1----------------|
---5-2---2---2---2---5-4-1-2-4-5---5-2---2---2-----4-1---1---1----|
   * *   *   *   *   * * * * * *   * *   *   *     * *   *   *


-----------------------------------|
-----------------------------------|
-----------------------------------|
------4---5---4--------------------|
2----------------------------------|
--5-2---2---2---2222222211111111---|
  * *   *   *   ****************



----------------------------------------------------------------------------|
----------------------------------------------------------------------------|
---___________________------------------------------------------------------|
--/                   \--4---------7---------10-------------13--------------|
-3-6-3-0-3-6-9-6-3-0-3-6--6-5-3-5-6-9-8-6-8-9--12-11-9-11-12--15-14-12-14-15|
----------------------------------------------------------------------------|
             T            * * * * * * * * * *   *  * *  *  *   *  *  *  *  *
Tap to rate this tab
# A B C D E F G H I J K L M N O P Q R S T U V W X Y Z