Song name
# A B C D E F G H I J K L M N O P Q R S T U V W X Y Z

Conducting From The Grave - In Times Of Wars And Worries tab

                              In times of wars and worries

   this is just the intro, and was tabbed very fast so theres probably mistakes. one of 
bestsongs- once agian email me at cliffroolez@tmail.com for questions


Gtr I
|-------------------------|---------------------------|---------------|
|-------------------------|---------------------------|---------------|
|-------------------------|---------------------------|---------------|
|-------------------------|---------------------------|---------------|
|-------8p7h8-------8p7h8-|-------10p8h10-------8p7h8-|-------8p7h8---|
|-0-0-0-------0-0-0-------|-8-8-8---------7-7-7-------|-0-0-0---------|


|-------------|--------------------------||-||------------------------------||
|-------------|-------------------------o||-||o----------------------------o||
|-------------|--------------------------||-||------------------------------||
|-------------|--------------------------||-||------------------------------||
|-------8p7h8-|-------7p5h7-------8p7h8-o||-||o---------------7h8p7h10p8p7-o||
|-0-0-0-------|-5-5-5-------7-7-7--------||-||----0-0-0-0-0-0---------------||


|----------------------------|-----------------------------|
|----------------------------|-----------------------------|
|----------------------------|-----------------------------|
|----------------------------|-----------------------------|
|-------------8h10p8h12p10p8-|-------------7h8p7h10p8p7----|
|-8-8-8-8-8-8----------------|-7-7-7-7-7-7-----------------|
Tap to rate this tab
# A B C D E F G H I J K L M N O P Q R S T U V W X Y Z