Song name
# A B C D E F G H I J K L M N O P Q R S T U V W X Y Z

Conducting From The Grave - A Never Ending Search For Closure tab

Conducting From The Grave
A Never Ending Search For Closure
Drop D half-step down(DbAbDbGbBbEb)

guitar by John Abernathy

. palm mute
tp trem pick
() hold note
/ slide up
\ slide down
                  (2x)
Eb|--------------------------------------|
Bb|--------------------------------------|
Gb|--------------------------------------|
Db|------6-----5-------------------------|
Ab|------------------6-------6p4\3-3h4p3-|
Db|3-3-3---3-3---3-3---3-3-3-------------|
   . . .   . .   . .   . . .

Eb|--------------------------------|
Bb|--------------------------------|
Gb|--------------------------------|
Db|--------------------------------|
Ab|------3-----3/4-------6-6-6-4-3-|
Db|6-6-6---6-6-----5-5-5-----------|
   . . .   . .     . . .

Eb|--------------------------------------|
Bb|--------------------------------------|
Gb|--------------------------------------|
Db|------6-----5-------------------------|
Ab|------------------6-------6p4\3-3h4p3-|
Db|3-3-3---3-3---3-3---3-3-3-------------|
   . . .   . .   . .   . . .

Eb|----------------------------------|
Bb|----------------------------------|
Gb|------------------4-5-4-5-7-5-4-5-|
Db|----------------------------------|
Ab|------4-4-4-3-3-------------------|
Db|2-2-2-----------------------------|
   . . .

      (after playing the above 2x)
Eb|--------------------------------------|
Bb|--------------------------------------|
Gb|--------------------------------------|
Db|------6-----5-------------------------|
Ab|------------------6-------6p4\3-3h4p3-|
Db|3-3-3---3-3---3-3---3-3-3-------------|
   . . .   . .   . .   . . .

Eb|--------------------------------|
Bb|--------------------------------|
Gb|--------------------------------|
Db|--------------------------------|
Ab|------3-----3/4-------6-6-6-4-3-|
Db|6-6-6---6-6-----5-5-5-----------|
   . . .   . .     . . .

Eb|--------------------------------------|
Bb|--------------------------------------|
Gb|--------------------------------------|
Db|------6-----5-------------------------|
Ab|------------------6-------6p4\3-3h4p3-|
Db|3-3-3---3-3---3-3---3-3-3-------------|
   . . .   . .   . .   . . .

Eb|----------------------------------|
Bb|----------------------------------|
Gb|----------------------------------|
Db|----------------------------------|
Ab|------4-4-4-3-3-------------------|
Db|2-2-2------------3-4-3-4-6-4-3-4--|
   . . .

            (2x)
Eb|-------------------------|
Bb|-------------------------|
Gb|-------------------------|
Db|-6-4-3-6-4-3-6-4-3-6-4-3-|
Ab|-------------------------|
Db|-------------------------|

Eb|-------------------------|
Bb|-------------------------|
Gb|-------------------------|
Db|-5-3-2-5-3-2-5-3-2-5-3-2-|
Ab|-------------------------|
Db|-------------------------|

Eb|-------------------------|
Bb|-------------------------|
Gb|-6-4-3-6-4-3-6-4-3-6-4-3-|
Db|-------------------------|
Ab|-------------------------|
Db|-------------------------|

    tp  tp  tp  tp   tp  tp
Eb|--------------------------------|
Bb|--------------------------------|
Gb|-5---6---8---10---3---5---5-6-5-|
Db|--------------------------------|
Ab|--------------------------------|
Db|--------------------------------|

  (after playing the above 2x, play this)
Eb|---------------------------------------------------|
Bb|---------------------------------------------------|
Gb|-------------------------5-6-8-5-6-8-7-8-10-7-8-10-|
Db|-8-6-5-8-6-5-4-5-7-4-5-7---------------------------|
Ab|---------------------------------------------------|
Db|---------------------------------------------------|

Eb|---------------------------------------------|
Bb|---------------------------------------------|
Gb|-------------------------5-6-8-6-5-----------|
Db|-8-6-5-8-6-5-4-5-7-4-5-7-----------8-6--(6)--|
Ab|---------------------------------------------|
Db|---------------------------------------------|

                  (2x)
Eb|--------------------------------------|
Bb|--------------------------------------|
Gb|-------4-----------6------------------|
Db|---------7-5---------9-7--------------|
Ab|-4-4-4-------6-6-6-------8-8-8-11-9-8-|
Db|--------------------------------------|
    . . .       . . .       . . .

Eb|-------------------------------------|
Bb|-------------------------------------|
Gb|---------8---------------------8-(8)-|
Db|-8-10-11---11-10-8-(8)-8-10-11-------|
Ab|-------------------------------------|
Db|-------------------------------------|

Eb|------------------------------------------|
Bb|------------------------------------------|
Gb|-8---------------------8-(8)-8------------|
Db|--11-10-8-(8)-8-10-11---------11-10-------|
Ab|------------------------------------8-(8)-|
Db|------------------------------------------|

Eb|---------------------------------------------------------------|
Bb|---------------------------------------------------------------|
Gb|---------------------------------------------------------------|
Db|---------8----------------------------8------------------------|
Ab|-8-10-11---11-10-8-10-11-8-(8)-8-10-11---11-10-8-10-11-10-(10)-|
Db|---------------------------------------------------------------|

Eb|------------------------------------|
Bb|------------------------------------|
Gb|------------------------------------|
Db|----------10----------------10-(10)-|
Ab|-10-12-13----13-12-10-12-13---------|
Db|------------------------------------|

Eb|----------------------------|
Bb|----------------------------|
Gb|----------10----------------|
Db|-10-12-13----13-12-10-12-13-|
Ab|----------------------------|
Db|----------------------------|

      (after playing the above 2x)
Eb|--------------------------------------|
Bb|--------------------------------------|
Gb|-------4-----------6------------------|
Db|---------7-5---------9-7--------------|
Ab|-4-4-4-------6-6-6-------8-8-8-11-9-8-|
Db|--------------------------------------|
    . . .       . . .       . . .

    tp tp tp tp tp tp tp tp tp   (i put the same number over and over to
Eb|-----------------------------| show that he picks that note longer
Bb|-----------------------------|
Gb|-----------------------------|
Db|-3--3--3--5--6--8--8--11--11-|
Ab|-----------------------------|
Db|-----------------------------|

Eb|----------------------------------------------------------|
Bb|----------------------------------------------------------|
Gb|----------------------------------------------------------|
Db|---------------13--------10h11----------------------------|
Ab|-11---11-11-11----11--11--------10---10-10-10-13-13-11-10-|
Db|----------------------------------------------------------|
    .   .  .  .      .   .         .    .  .  .

    tp tp tp tp tp tp tp tp  tp
Eb|-----------------------------|
Bb|-----------------------------|
Gb|-----------------------------|
Db|-3--3--3--5--6--8--8--11--11-|
Ab|-----------------------------|
Db|-----------------------------|

Eb|-------------------------------------------------|
Bb|-------------------------------------------------|
Gb|-------------------------------------10--------9-|
Db|------------11--------10-------------------------|
Ab|-8---8-8-8------8--8------8---8-8-8------8--8----|
Db|-------------------------------------------------|
    .   . . .      .  .      .   . . .      .  .

    tp tp tp tp tp tp tp tp  tp
Eb|-----------------------------|
Bb|-----------------------------|
Gb|-----------------------------|
Db|-3--3--3--5--6--8--8--11--11-|
Ab|-----------------------------|
Db|-----------------------------|

Eb|----------------------------------------------------------|
Bb|----------------------------------------------------------|
Gb|----------------------------------------------------------|
Db|---------------13--------10h11----------------------------|
Ab|-11---11-11-11----11--11--------10---10-10-10-13-13-11-10-|
Db|----------------------------------------------------------|
    .    .  .  .     .   .         .    .  .  .

    tp tp tp tp tp tp tp tp  tp
Eb|-----------------------------|
Bb|-----------------------------|
Gb|-----------------------------|
Db|-3--3--3--5--6--8--8--11--11-|
Ab|-----------------------------|
Db|-----------------------------|

Eb|------------------------------------------------|
Bb|------------------------------------------------|
Gb|------------10--------9-------------10--------9-|
Db|------------------------------------------------|
Ab|-8---8-8-8------8--8-----8---8-8-8------8--8----|
Db|------------------------------------------------|
    .   . . .      .  .     .   . . .      .  .

    tp tp tp tp tp tp  tp  tp  tp
Eb|-------------------------------|
Bb|-------------------------------|
Gb|-------------------------------|
Db|-6--6--6--8--9--11--11--14--14-|
Ab|-------------------------------|
Db|-------------------------------|

Eb|----------------------------------------------------------|
Bb|----------------------------------------------------------|
Gb|----------------------------------------------------------|
Db|---------------15--------13h14----------------------------|
Ab|-13---13-13-13----13--13--------12---12-12-12-15-15-13-12-|
Db|----------------------------------------------------------|
    .    .  .  .     .   .         .    .  .  .

    tp tp tp tp tp tp  tp  tp  tp
Eb|-------------------------------|
Bb|-------------------------------|
Gb|-------------------------------|
Db|-6--6--6--8--9--11--11--14--14-|
Ab|-------------------------------|
Db|-------------------------------|

Eb|------------------------------------------------|
Bb|------------------------------------------------|
Gb|------------------------------------10--------9-|
Db|------------11--------10------------------------|
Ab|-8---8-8-8------8--8-----8---8-8-8------8--8----|
Db|------------------------------------------------|
    .   . . .      .  .     .   . . .      .  .

    tp tp tp tp tp tp  tp  tp  tp
Eb|-------------------------------|
Bb|-------------------------------|
Gb|-------------------------------|
Db|-6--6--6--8--9--11--11--14--14-|
Ab|-------------------------------|
Db|-------------------------------|

Eb|----------------------------------------------------------|
Bb|----------------------------------------------------------|
Gb|----------------------------------------------------------|
Db|---------------15--------13h14----------------------------|
Ab|-13---13-13-13----13--13--------12---12-12-12-15-15-13-12-|
Db|----------------------------------------------------------|
    .    .  .  .     .   .         .    .  .  .

    tp tp tp tp tp tp  tp  tp  tp
Eb|-------------------------------|
Bb|-------------------------------|
Gb|-------------------------------|
Db|-6--6--6--8--9--11--11--14--14-|
Ab|-------------------------------|
Db|-------------------------------|

Eb|-----------------------------|
Bb|-----------------------------|
Gb|------------10--------9h10-9-|
Db|-----------------------------|
Ab|-8---8-8-8------8--8---------|
Db|-----------------------------|
    .   . . .      .  .

(still dont have the clean tone part)

                    (3x)
                       tp tp tp
Eb|-------------------------------------------|
Bb|-------------------------------------------|
Gb|-------------------------------------------|
Db|-3-3-(3)--3-3--(3)--7--7--5--7--2-2----2-2-|
Ab|-3-3-(3)--3-3--(3)--------------2-2----2-2-|
Db|-3-3-(3)--3-3--(3)--------------2-2----2-2-|
    . .      . .                   . .    . .

          (after playing the above 3x play this)
                       tp tp tp
Eb|----------------------------------------------------------|
Bb|----------------------------------------------------------|
Gb|----------------------------------------------------------|
Db|-3-3-(3)--3-3--(3)--7--7--5--7--2-2----2-2--5-4-5-7-5-4-5-|
Ab|-3-3-(3)--3-3--(3)--------------2-2----2-2----------------|
Db|-3-3-(3)--3-3--(3)--------------2-2----2-2----------------|
    . .      . .                   . .    . .

                   tp tp tp
Eb|------------------------------------------------------|
Bb|------------------------------------------------------|
Gb|------------------------------------------------------|
Db|-3-3--3-3--3-3--7--7--5--7--2-2----2-2--5-4-5-7-5-4-5-|
Ab|-3-3--3-3--3-3--------------2-2----2-2----------------|
Db|-3-3--3-3--3-3--------------2-2----2-2----------------|
    . .  . .  . .              . .    . .

                   tp tp tp
Eb|------------------------------------------------------------|
Bb|------------------------------------------------------------|
Gb|------------------------------------------------------------|
Db|-3-3--3-3--3-3--7--7--5--7----------------------------------|
Ab|-3-3--3-3--3-3--------------2-2-2-2-2-2-2-2-3-3-3-3-5-5-5-5-|
Db|-3-3--3-3--3-3----------------------------------------------|
    . .  . .  . .              . . . . . . . . . . . . . . . .

                  (2x)
Eb|--------------------------------------|
Bb|--------------------------------------|
Gb|--------------------------------------|
Db|------6-----5-------------------------|
Ab|------------------6-------6p4\3-3h4p3-|
Db|3-3-3---3-3---3-3---3-3-3-------------|
   . . .   . .   . .   . . .

Eb|--------------------------------|
Bb|--------------------------------|
Gb|--------------------------------|
Db|--------------------------------|
Ab|------3-----3/4-------6-6-6-4-3-|
Db|6-6-6---6-6-----5-5-5-----------|
   . . .   . .     . . .

Eb|--------------------------------------|
Bb|--------------------------------------|
Gb|--------------------------------------|
Db|------6-----5-------------------------|
Ab|------------------6-------6p4\3-3h4p3-|
Db|3-3-3---3-3---3-3---3-3-3-------------|
   . . .   . .   . .   . . .

Eb|----------------------------------|
Bb|----------------------------------|
Gb|------------------4-5-4-5-7-5-4-5-|
Db|----------------------------------|
Ab|------4-4-4-3-3-------------------|
Db|2-2-2-----------------------------|
   . . .

               (play the next 2 bars 5x)
Eb|---|-----------------------------------------------------------|
Bb|---|-----------------------------------------------------------|
Gb|---|-----8h10h8----8-10-12-9-(9)--12h13h12----15-13-12---------|
Db|---|------------10-------------------------13----------15-(15)-|
Ab|-8-|-(8)-------------------------------------------------------|
Db|---|-----------------------------------------------------------|

Eb|-----------------------------------------------------|
Bb|-----------------------------------------------------|
Gb|-----------------------------------------------------|
Db|-11h12h111----11-------------------------------------|
Ab|-----------12----14-12-11-(11)--15-13-12-13-12-10-11-|
Db|-----------------------------------------------------|

   (after playing the above bars 5x play these 2 bars 6x)
Eb|------|------------------------------------------------------|
Bb|------|------------------------------------------------------|
Gb|------|-8h10h8------------------12h13h12----15-13-12---------|
Db|------|--------10-11-10-8----------------13----------15-(15)-|
Ab|-(11)-|-------------------8-(8)------------------------------|
Db|------|------------------------------------------------------|

Eb|---------------------------------------------------|
Bb|---------------------------------------------------|
Gb|-----8h10h8----------------------------------------|
Db|------------10-11-10-8-------8-11-8-(8)-8-11-------|
Ab|-----------------------8-(8)-----------------8-(8)-|
Db|---------------------------------------------------|

(on the 6th time, play this)
Eb|----------------------------------------------------------|
Bb|----------------------------------------------------------|
Gb|-----8h10h8------------------12h13h12----15-13-12---------|
Db|------------10-11-10-8----------------13----------15-(15)-|
Ab|-(8)-------------------8-(8)------------------------------|
Db|----------------------------------------------------------|

Eb|-------------------------------------------------------|
Bb|-------------------------------------------------------|
Gb|-----8h10h8--------------------------------------------|
Db|------------10-11-10-8-------8-11-8-(8)-8-11-8/10-(10)-|(hold this note)
Ab|-----------------------8-(8)---------------------------|
Db|-------------------------------------------------------|

thats all of the distortion part
still workin on the clean tone

i realize iv changed the intro and some parts in the middle a couple times in my past 2 
for this song......this time i got it right!!!!!
Tap to rate this tab
# A B C D E F G H I J K L M N O P Q R S T U V W X Y Z