Song name
# A B C D E F G H I J K L M N O P Q R S T U V W X Y Z

Confession - Ice Ice Baby tab

-------------------------------------------------------------------------------
			    ICE ICE BABY - CONFESSION
-------------------------------------------------------------------------------
Tabbed by: L-Dizzle fo shizzle Mosh king
Email:

Tuning: Dropped A# A#FA#D#GC
     Intro                                         Run
C |---------------------------------------------|-----------------------------|
G |--------------11-------11-------11------11---|-----------------------------|
D#|----------8--------8--------8---------8-----0|-----------------------------|
A#|------------9----9---9----9--9-----9---------|-----------------------------|
F |--------------------------------------------0|-----1------3p1--------------|
A#|000012\--------------------------------------|1h3h4--1h3h4---4p1-----------|
    Verse
C |------------------------------------------------------------------------------|
G |------------------------------------------------------------------------------|
D#|-----------------------------------------------------------------------------0|
A#|----------------------------3-35----------------------------------------------|
F |0--0--0--0--0-0-0--0--0--0--1-13-0--0--0--0--0-0-0--0--0--0-------0----------0|
A#|0000000000000000000000000000-0---00000000000000000000000000-101h3--301--------|
   >  >  >  >  > > >  >  >  >  > >	>  >  >  >  > > >  >  >  >
	Interlude
C |---------------------------------------------------------------------------------|
G |---------------------------------------------10----------------------------------|
D#|7h10-7h10-----------7----7h10-7h10--------------7---7h10-7h10-------------------0|
A#|-----------7h10-------10-----------7h10-7h10-------------------7h10-7h10-87------|
F |---------------7h10--------------------------------------------------------108--0|
A#|---------------------------------------------------------------------------------|

C |------------------------------------------------------------------------------|
G |------------------------------------------------------------------------------|
D#|-----------------------------------------------------------------------------0|
A#|----------------------------3-35----------------------------------------------|
F |0--0--0--0--0-0-0--0--0--0--1-13-0--0--0--0--0-0-0--0--0--0-------0----------0|
A#|0000000000000000000000000000-0---00000000000000000000000000-101h3--301--------|

Breakdown all open A# power chords listen for rhythm

|\            /|
| \          / |
|  \        /  |
|   \      /   |
|    \    /    | OSH!
|     \  /     |
|      \/      |

| \  slide down
| h  hammer-on
| p  pull-off

Palm mute at own discretion
Tap to rate this tab
 
# A B C D E F G H I J K L M N O P Q R S T U V W X Y Z