Song name
# A B C D E F G H I J K L M N O P Q R S T U V W X Y Z

Confession - Shes Not What She Seems tab

CONFESSION - SHE'S NOT WHAT SHE SEEMS
tabbed by: SOUTON
easy song and my first tab

- notes -
it's missing 1 part near the end.
i'm sure all you great players will figure it out.

 -  G# = tuning
 -  ph = pinch harmonic
 -  ~~ = ring out
 -  \/ = slide
 -   . = palm mute


A#|--------------------------------------------|
F |--------------------------------------------|
C#|--------------------------------------------|
G#|-13-0-0-0-0--0-0-0-0--0-0--0-0-0-0-0--0-0-0-|
D#|-13-0-0-0-0--0-0-0-0--0-0--0-0-0-0-0--0-0-0-|
G#|-13-0-0-0-0--0-0-0-0--0-0--0-0-0-0-0--0-0-0-|
       . . . .  . . . .  . .  . . . . .  . . .


A#|------------------------------------------------|
F |------------------------------------------------|
C#|------------------------------------------------|
G#|-0-0-0-13-0-0--0-0---0-0--0-0--13-0-0-0-0--0-0-0|
D#|-0-0-0-13-0-0--0-0---0-0--0-0--13-0-0-0-0--0-0-0|
G#|-0-0-0-13-0-0--0-0---0-0--0-0--13-0-0-0-0--0-0-0|
    . . .    . .  . .   . .  . .     . . . .  . . .

A#|----------------------------------------------------|
F |----------------------------------------------------|
C#|----------------------------------------------------|
G#|-0-0--0-0-0-0-0--0-0-0--0-0-0-13-0-0--0-0---0-0--0-0|
D#|-0-0--0-0-0-0-0--0-0-0--0-0-0-13-0-0--0-0---0-0--0-0|
G#|-0-0--0-0-0-0-0--0-0-0--0-0-0-13-0-0--0-0---0-0--0-0|
    . .  . . . . .  . . .  . . .    . .  . .   . .  . .


A#|---------------------------------------|
F |---------------------------------------|
C#|-10-10-10------------------------------|
G#|--8--8--8------------14--14------------|
D#|--8--8--8------------10--10------------|
G#|--8--8--8------------10--10------------|
             \slide to/


[------------^^^^^--REPEAT-ALL--^^^^^------------------]


A#|-------------------------------------|
F |-------------------------------------|
C#|-------------------------------------|
G#|-------------------------------------|
D#|-------------------------------------|
G#|13-12-12-12-12-12-12-12-12-12-12-12--|

A#|-------------------------------------|
F |-------------------------------------|
C#|-------------------------------------|
G#|-------------------------------------|
D#|-------------------------------------|
G#|13-12-12-12-12-12-15-13-12-13-12-8---|
 
A#|-------------------------------------|
F |-------------------------------------|
C#|-------------------------------------|
G#|-------------------------------------|
D#|-------------------------------------|
G#|13-12-12-12-12-12-12-12-12-12-12-12--|

A#|--------------------|
F |--------------------|
C#|--------------------|
G#|--------------------|
D#|--------------------|
G#|13-12-12-12-12-12---|

[---------breakdown------] [2x]

A#|---------------------------------------------------|
F |---------------------------------------------------|
C#|---------------------------------------------------|
G#|-0--0-0--0-0--0-0--0-0--0-0---0-0-0--0---0--0-0-0--| [2nd time played has]
D#|-0--0-0--0-0--0-0--0-0--0-0---0-0-0--0---0--0-0-0--| [a blank.just figure]
G#|-1--1-1--1-1--1-1--1-1--1-1---1-1-1--1---1--1-1-1--| [where its at     ]
    .  . .  . .  . .  . .  . .   . . .  .   .  . . .

A#|--------------------------------------------------|
F |--------------------------------------------------|
C#|--------------------------------------------------|
G#|-0--0-0--0-0--0-0--0-0--0-0---0-0-0--0---4-3--2---|
D#|-0--0-0--0-0--0-0--0-0--0-0---0-0-0--0---4-3--2---|
G#|-1--1-1--1-1--1-1--1-1--1-1---1-1-1--1---4-3--2-1-|
    .  . .  . .  . .  . .  . .   . . .  .   . .  . ph

-----repeat riffs from here------

I am missing one whole part before the pre-breakdown
any help would be great. some notes are just to hard to hear.


A#|---------------------------------------------------|
F |---------------------------------------------------|
C#|---------------------------------------------------|
G#|-0--0-0--0-0--0-0--0-0--0-0---0-0-0--0---0--0-0-0--|
D#|-0--0-0--0-0--0-0--0-0--0-0---0-0-0--0---0--0-0-0--|
G#|-1--1-1--1-1--1-1--1-1--1-1---1-1-1--1---1--1-1-1--|
    .  . .  . .  . .  . .  . .   . . .  .   .  . . . 

A#|---------------|
F |---------------|
C#|---------------| [last notes played after final breakdown]
G#|-4--3--1--0~~~~|
D#|-4--3--1--0~~~~|
G#|-4--3--1--0~~~~|
  
Tap to rate this tab
# A B C D E F G H I J K L M N O P Q R S T U V W X Y Z