Song name
# A B C D E F G H I J K L M N O P Q R S T U V W X Y Z

Confession - Send A Meat Truck tab

Band:  Confession
Song:  Mirrors
Album: Cancer

Tuning: Drop G# [G#,D#,G#,C#,F,A#]

I noticed there were tab requests for this song, and there were no tabs, so
I took the liberty of tabbing it myself.
Also, holy florking schnit, their new album is tuned low.
After tabbing "Mirrors" I wanted to learn this song, so I tried playing
along with it in A#, assuming it was also in their old tuning. But, after
about 2 minutes, I realised that it sounded wrong so I started looking for
the note it harmonised with, hit the 10th fret, "Holy fork. They're in G#!"
So, there's the backstory but you came here to learn the song, not hear all
that.
So, without further ado, here's the tab!

Probably not 100% perfect, but I feel it's pretty close.
Enjoy!


Intro/Verse x4

A#|-----------------------------------------------|
F |-----------------------------------------------|
C#|--------------------------------------17--17---|
G#|------------------------------14-15~15--15--15-|
D#|-----------------------------------------------|
G#|-0~~000-0~0~~000-0~0~~000-0-0------------------|
PM     ...      ...      ... . .


Post-Verse 1

A#|-----------------------------------------------|
F |-----------------------------------------------|
C#|-----------------------------------------------|
G#|-0~~~~~~~~~~~~~~~~~~~~~~~~~~~~~~~~~~~~~~~~~~~~-|
D#|-0~~~~~~~~~~~~~~~~~~~~~~~~~~~~~~~~~~~~~~~~~~~~-|
G#|-0~~~~~~~~~~~~~~~~~~~~~~~~~~~~~~~~~~~~~~~~~~~~-|


Chorus x2

GUITAR ONE

A#|---------------------------------------------|
F |---------------------------------------------|
C#|---------------------------------------------|
G#|-88888888-1010101010101010-00000000-00000000-|
D#|-88888888-1010101010101010-00000000-00000000-|
G#|-88888888-1010101010101010-00000000-00000000-|

GUITAR TWO
                                              {         x2         }
A#|-----------------------------------------------------------------|
F |------10~~------10~~---------------------------------------------|
C#|---------------------------12~~-------12~~-------17~~-------17~~-|
G#|-8-10------8-10------10-12------10-12------14-15------14-15------|
D#|-----------------------------------------------------------------|
G#|-----------------------------------------------------------------|


Verse 2 x2

A#|--------------------------------------------------|
F |--------------------------------------------------|
C#|--------------------------------------------------|
G#|--------------------------------------------------|
D#|--------------------------------------------------|
G#|-0~~000-0~0~~000-0~0~~000-0~0-000-0~0-000-0~0-000-|
PM     ...      ...      ...     ...     ...     ...


Breakdown

A#|---------------------------------------|
F |---------------------------------------|
C#|---------------------------------------|
G#|-0-0---000-0-000-0-0---------000-0-000-|
D#|-0-0---000-0-000-0-0---------000-0-000-|
G#|-0-0---000-0-000-0-0---------000-0-000-|
PM  . .   ... . ... . .         ... . ...

continued...

A#|---------------------------------------|
F |---------------------------------------|
C#|---------------------------------------|
G#|-0---000-0-000-0-0~~~~~~~~~~~~~--------|
D#|-0---000-0-000-0-0~~~~~~~~~~~~~-3*vvvv-|
G#|-0---000-0-000-0-0~~~~~~~~~~~~~--------|
PM  .     ...   ...

continued...

A#|---------------------------------------|
F |---------------------------------------|
C#|---------------------------------------|
G#|-0~0~~~000~0~000~0~0~~~~~~~~~000~0~000-|
D#|-0~0~~~000~0~000~0~0~~~~~~~~~000~0~000-|
G#|-0~0~~~000~0~000~0~0~~~~~~~~~000~0~000-|
PM  . .   ... . ... . .         ... . ...

continued...

A#|---------------------------------------|
F |---------------------------------------|
C#|---------------------------------------|
G#|-0~~~000~0~000~0~0~~~~~~~~~~~~~~~~~~~~-|
D#|-0~~~000~0~000~0~0~~~~~~~~~~~~~~~~~~~~-|
G#|-0~~~000~0~000~0~0~~~~~~~~~~~~~~~~~~~~-|
PM  .   ... . ... . .


Chorus x2

GUITAR ONE

A#|---------------------------------------------|
F |---------------------------------------------|
C#|---------------------------------------------|
G#|-88888888-1010101010101010-00000000-00000000-|
D#|-88888888-1010101010101010-00000000-00000000-|
G#|-88888888-1010101010101010-00000000-00000000-|

GUITAR TWO
                                              {         x2         }
A#|-----------------------------------------------------------------|
F |------10~~------10~~---------------------------------------------|
C#|---------------------------12~~-------12~~-------17~~-------17~~-|
G#|-8-10------8-10------10-12------10-12------14-15------14-15------|
D#|-----------------------------------------------------------------|
G#|-----------------------------------------------------------------|


Verse 1 x4

A#|-----------------------------------------------|
F |-----------------------------------------------|
C#|--------------------------------------17--17---|
G#|------------------------------14-15~15--15--15-|
D#|-----------------------------------------------|
G#|-0~~000-0~0~~000-0~0~~000-0-0------------------|
PM     ...      ...      ... . .


Post-Verse 1 x2

A#|-----------------------------------------------|
F |-----------------------------------------------|
C#|-----------------------------------------------|
G#|-0~~~~~~~~~~~~~~~~~~~~~~~~~~~~~~~~~~~~~~~~~~~~-|
D#|-0~~~~~~~~~~~~~~~~~~~~~~~~~~~~~~~~~~~~~~~~~~~~-|
G#|-0~~~~~~~~~~~~~~~~~~~~~~~~~~~~~~~~~~~~~~~~~~~~-|


Solo x5

GUITAR ONE

A#|-------------------------------------------------|
F |-------------------------------------------------|
C#|-------------------------------------------------|
G#|-88888888-88888888-00000000-14h15p14-12h14p12\10-|
D#|-88888888-88888888-00000000----------------------|
G#|-88888888-88888888-00000000----------------------|

GUITAR TWO

A#|-----------------------------------------------|
F |-15~~15h16p15-----------15~~15h16p15-----------|
C#|--------------15/17~~~~--------------15/17~~~~-|
G#|-----------------------------------------------|
D#|-----------------------------------------------|
G#|-----------------------------------------------|


Outro A x8

GUITAR ONE

A#|-------------------------------------|
F |-------------------------------------|
C#|-------------------------------------|
G#|-88888888-88888888-00000000-00000000-|
D#|-88888888-88888888-00000000-00000000-|
G#|-88888888-88888888-00000000-00000000-|

GUITAR TWO

A#|-------------------------|
F |-------------------------|
C#|-------17~~-/19~---------|
G#|-14/15-----------19-17~~-| x4
D#|-------------------------|
G#|-------------------------|


Outro B x4

GUITAR ONE

A#|-------------------------------------------------------------------------|
F |-------------------------------------------------------------------------|
C#|-------------------------------------------------------------------------|
G#|-0--0---------------------------------------8--8-------------------------|
D#|-0--0---------------------------------------8--8-------------------------|
G#|-0--0---------------------------------------8--8-------------------------|
PM  .  .                                       .  .

GUITAR TWO

A#|---------------------------------------------------|
F |---------------------------------------------------|
C#|---------------------------------------------------|
G#|------14h15-14h15-14h15-14h15-14h15-14h15p14-------|x2
D#|--------------------------------------------15~~~~-|
G#|---------------------------------------------------|

Have fun playing it! If you're actually game to tune down that low...
Tap to rate this tab
# A B C D E F G H I J K L M N O P Q R S T U V W X Y Z