Song name
# A B C D E F G H I J K L M N O P Q R S T U V W X Y Z

Confession - That Scag His Floozie Theyre Gonna Die tab

Band:  Confession
Song:  That Scag & His Floozie, They're Gonna Die
Album: Cancer

Tuning: Drop G# [G#,D#,G#,C#,F,A#]

Probably not 100% perfect, but I feel it's pretty close.
Enjoy!
Probably my second favourite Confession song.


Intro

GUITAR ONE

A#|--------------------------------------------------------|
F |--------------------------------------------------------|
C#|--------------------------------------------------------|
G#|-0~~~~~~~~~~~~~~~~~~~~~~~~-8~~~~~~~~~~~~-10~~~~~~~~~~~~-|
D#|-0~~~~~~~~~~~~~~~~~~~~~~~~-8~~~~~~~~~~~~-10~~~~~~~~~~~~-|
G#|-0~~~~~~~~~~~~~~~~~~~~~~~~-8~~~~~~~~~~~~-10~~~~~~~~~~~~-|

GUITAR TWO

A#|---------------------------------------------------------|
F |----6~~~~~~~~~~-6~~~~~~~~~~-6~~~~~~~~~~~~-6~~~~~~~~~~~~--|
C#|--9~~~~~~~~~~~9~~~~~~~~~~~~~~-9~~~~~~~~~~~-9~~~~~~~~~~~~-|
G#|---------------------------------------------------------|
D#|---------------------------------------------------------|
G#|---------------------------------------------------------|

continued...

GUITAR ONE

A#|---------------------------------------------------------|
F |---------------------------------------------------------|
C#|---------------------------------------------------------|
G#|-0~~~~~~~~~~~~~~~~~~~~~~~~-------------------------------|
D#|-0~~~~~~~~~~~~~~~~~~~~~~~~---8--10p8--8----10--13p12--10-|
G#|-0~~~~~~~~~~~~~~~~~~~~~~~~-88-8------8---10--10-----10---|
PM                            .. .      .   .   .      .

GUITAR TWO

A#|---------------------------------------------------------|
F |----6~~~~~~~~~~-6~~~~~~~~~~-6~~~~~~~~~~~~-6~~~~~~~~~~~~--|
C#|--9~~~~~~~~~~~9~~~~~~~~~~~~~~-9~~~~~~~~~~~-9~~~~~~~~~~~~-|
G#|---------------------------------------------------------|
D#|---------------------------------------------------------|
G#|---------------------------------------------------------|


Verse A x2

GUITAR ONE

A#|----------------------------------------------------|
F |----------------------------------------------------|
C#|----------------------------------------------------|
G#|-------------------------8--------------------------|
D#|-0-------0----------12-----12---8----8----10p8----8-|
G#|-0-00000-0-00000-88----8------8---10---10------10---|
PM    .....   ..... ..    .      .   .    .       .

GUITAR TWO

A#|---------------------------------------------------------|
F |----6~~~~~~~~~~-6~~~~~~~~~~-6~~~~~~~~~~~~-6~~~~~~~~~~~~--|
C#|--9~~~~~~~~~~~9~~~~~~~~~~~~~~-9~~~~~~~~~~~-9~~~~~~~~~~~~-|
G#|---------------------------------------------------------|
D#|---------------------------------------------------------|
G#|---------------------------------------------------------|

continued...

GUITAR ONE

A#|-----------------------------------------------|
F |-----------------------------------------------|
C#|-----------------------------------------------|
G#|-----------------------------------------------|
D#|-0-------0---------8--10p8--8----10--13p12--10-|
G#|-0-00000-0-00000-88-8------8---10--10-----10---|
PM    .....   ..... .. .      .   .   .      .

GUITAR TWO

A#|---------------------------------------------------------|
F |----6~~~~~~~~~~-6~~~~~~~~~~-6~~~~~~~~~~~~-6~~~~~~~~~~~~--|
C#|--9~~~~~~~~~~~9~~~~~~~~~~~~~~-9~~~~~~~~~~~-9~~~~~~~~~~~~-|
G#|---------------------------------------------------------|
D#|---------------------------------------------------------|
G#|---------------------------------------------------------|

Post-Verse A

GUITAR ONE

A#|---------------------------------------------------------|
F |---------------------------------------------------------|
C#|---------------------------------------------------------|
G#|-------------------------------0~~~~~~~~~~~~~~~~~~~~~~~~-|
D#|---8--10p8--8----10--13p12--10-0~~~~~~~~~~~~~~~~~~~~~~~~-|
G#|-88-8------8---10--10-----10---0~~~~~~~~~~~~~~~~~~~~~~~~-|
PM  .. .      .   .   .      .

GUITAR TWO

A#|---------------------------------------------------------|
F |---6~~~~~~~~~~~~-6~~~~~~~~~~~~---------------------------|
C#|-----9~~~~~~~~~~~-9~~~~~~~~~~~~~~~~~~~~~~~~~~~~~~~~~~~~~-|
G#|---------------------------------------------------------|
D#|---------------------------------------------------------|
G#|---------------------------------------------------------|


Pre-Verse B

GUITAR TWO (Bass on EQ turned  down)

A#|-----------|
F |-----------|
C#|-----------|
G#|-----------|
D#|-----------|
G#|-1-1-0h1-1-|
PM          .


Verse B x8

BOTH GUITARS

A#|-----------------------|
F |-----------------------|
C#|-----------------------|
G#|-0-00-1p0-00-0-0-0h1-1-|
D#|-0-00-1p0-00-0-0-0h1-1-|
G#|-0-00-1p0-00-1-1-0h1-1-|
PM    ..     ..         .


Post-Verse B

GUITAR ONE

A#|---------------------------------------------------------|
F |---------------------------------------------------------|
C#|---------------------------------------------------------|
G#|-0~~~~~~~~~~~~~~~~~~~~~~~~-------------------------------|
D#|-0~~~~~~~~~~~~~~~~~~~~~~~~---8--10p8--8----10--13p12--10-|
G#|-0~~~~~~~~~~~~~~~~~~~~~~~~-88-8------8---10--10-----10---|
PM                            .. .      .   .   .      .

GUITAR TWO

A#|---------------------------------------------------------|
F |----6~~~~~~~~~~-6~~~~~~~~~~-6~~~~~~~~~~~~-6~~~~~~~~~~~~--|
C#|--9~~~~~~~~~~~9~~~~~~~~~~~~~~-9~~~~~~~~~~~-9~~~~~~~~~~~~-|
G#|---------------------------------------------------------|
D#|---------------------------------------------------------|
G#|---------------------------------------------------------|


Verse C

Part One x2

GUITAR ONE

A#|---------------------------------------------8~~~~~~~~~-|
F |--------------------------------------------------------|
C#|------------------------------------------------10~9~~~-|
G#|-0~~~~~~~~~~~~~~~~~~~~~~~~~~~~~~~~~~~~~~~~~~~~~~~~~~~~~-|
D#|-0~~~~~~~~~~~~~~~~~~~~~~~~~~~~~~~~~~~~~~~~~~~~~~~~~~~~~-|
G#|-0~~~~~~~~~~~~~~~~~~~~~~~~~~~~~~~~~~~~~~~~~~~~~~~~~~~~~-|

Couldn't figure out GUITAR TWO.


Part Two x2

GUITAR ONE

A#|------------------------8~~~~~~~~~-|
F |-----------------------------------|
C#|---------------------------10~9~~~-|
G#|-0~~~~~~~~~~~~~~~~~~~~~~~~~~~~~~~~-|
D#|-0~~~~~~~~~~~~~~~~~~~~~~~~~~~~~~~~-|
G#|-0~~~~~~~~~~~~~~~~~~~~~~~~~~~~~~~~-|


Breakdown x2

Part One

BOTH GUITARS

A#|----------------------------------|
F |----------------------------------|
C#|----------------------------------|
G#|-0-0-00----0-00-0--0000-0000-0-00-|
D#|-0-0-00----0-00-0--0000-0000-0-00-|
G#|-0-0-00----0-00-0--0000-0000-0-00-|
PM  . . ..    . .. .  .... .... . ..

Part Two

A#|-------------------------------------------------|
F |-------------------------------------------------|
C#|-------------------------------------------------|
G#|-0-0-00----0-00-0--0000-000------8---------------|
D#|-0-0-00----0-00-0--0000-000---12---12-----8-10-8-|
G#|-0-0-00----0-00-0--0000-000-8----------10--------|
PM  . . ..    . .. .  .... ... .          .


Verse D x4

GUITAR ONE

A#|---------------------------------------|
F |---------------------------------------|This 5 at the end carries
C#|---------------------------------------|straight back to the start
G#|---------------------------------------|of this riff.
D#|-5-----5-5-----5-7-----7-8-----7h8-3h5-|
G#|---000-----000-----000-----000---------|
PM    ...     ...     ...     ...

GUITAR TWO

A#|--------------------------------------------|
F |--------------------------------------------|This 8 at the end carries
C#|--------------------------------------------|straight back to the start
G#|--------------------------------------------|of this riff.
D#|-8-----8-8-----8-10-----10-12-----12h13-7h8-|
G#|---000-----000------000-------000-----------|
PM    ...     ...      ...       ...


Verse B x4

BOTH GUITARS

A#|-----------------------|
F |-----------------------|
C#|-----------------------|
G#|-0-00-1p0-00-0-0-0h1-1-|
D#|-0-00-1p0-00-0-0-0h1-1-|
G#|-0-00-1p0-00-1-1-0h1-1-|
PM    ..     ..         .


Intro

GUITAR ONE

A#|--------------------------------------------------------|
F |--------------------------------------------------------|
C#|--------------------------------------------------------|
G#|-0~~~~~~~~~~~~~~~~~~~~~~~~-8~~~~~~~~~~~~-10~~~~~~~~~~~~-|
D#|-0~~~~~~~~~~~~~~~~~~~~~~~~-8~~~~~~~~~~~~-10~~~~~~~~~~~~-|
G#|-0~~~~~~~~~~~~~~~~~~~~~~~~-8~~~~~~~~~~~~-10~~~~~~~~~~~~-|

GUITAR TWO

A#|---------------------------------------------------------|
F |----6~~~~~~~~~~-6~~~~~~~~~~-6~~~~~~~~~~~~-6~~~~~~~~~~~~--|
C#|--9~~~~~~~~~~~9~~~~~~~~~~~~~~-9~~~~~~~~~~~-9~~~~~~~~~~~~-|
G#|---------------------------------------------------------|
D#|---------------------------------------------------------|
G#|---------------------------------------------------------|

continued...

GUITAR ONE

A#|---------------------------------------------------------|
F |---------------------------------------------------------|
C#|---------------------------------------------------------|
G#|-0~~~~~~~~~~~~~~~~~~~~~~~~-------------------------------|
D#|-0~~~~~~~~~~~~~~~~~~~~~~~~---8--10p8--8----10--13p12--10-|
G#|-0~~~~~~~~~~~~~~~~~~~~~~~~-88-8------8---10--10-----10---|
PM                            .. .      .   .   .      .

GUITAR TWO

A#|---------------------------------------------------------|
F |----6~~~~~~~~~~-6~~~~~~~~~~-6~~~~~~~~~~~~-6~~~~~~~~~~~~--|
C#|--9~~~~~~~~~~~9~~~~~~~~~~~~~~-9~~~~~~~~~~~-9~~~~~~~~~~~~-|
G#|---------------------------------------------------------|
D#|---------------------------------------------------------|
G#|---------------------------------------------------------|


Verse A x2

GUITAR ONE

A#|----------------------------------------------------|
F |----------------------------------------------------|
C#|----------------------------------------------------|
G#|-------------------------8--------------------------|
D#|-0-------0----------12-----12---8----8----10p8----8-|
G#|-0-00000-0-00000-88----8------8---10---10------10---|
PM    .....   ..... ..    .      .   .    .       .

GUITAR TWO

A#|---------------------------------------------------------|
F |----6~~~~~~~~~~-6~~~~~~~~~~-6~~~~~~~~~~~~-6~~~~~~~~~~~~--|
C#|--9~~~~~~~~~~~9~~~~~~~~~~~~~~-9~~~~~~~~~~~-9~~~~~~~~~~~~-|
G#|---------------------------------------------------------|
D#|---------------------------------------------------------|
G#|---------------------------------------------------------|

continued...

GUITAR ONE

A#|-----------------------------------------------|
F |-----------------------------------------------|
C#|-----------------------------------------------|
G#|-----------------------------------------------|
D#|-0-------0---------8--10p8--8----10--13p12--10-|
G#|-0-00000-0-00000-88-8------8---10--10-----10---|
PM    .....   ..... .. .      .   .   .      .

GUITAR TWO

A#|---------------------------------------------------------|
F |----6~~~~~~~~~~-6~~~~~~~~~~-6~~~~~~~~~~~~-6~~~~~~~~~~~~--|
C#|--9~~~~~~~~~~~9~~~~~~~~~~~~~~-9~~~~~~~~~~~-9~~~~~~~~~~~~-|
G#|---------------------------------------------------------|
D#|---------------------------------------------------------|
G#|---------------------------------------------------------|

Repeat this until fade out.
Tap to rate this tab
 
# A B C D E F G H I J K L M N O P Q R S T U V W X Y Z