Song name
# A B C D E F G H I J K L M N O P Q R S T U V W X Y Z

Confession - You Cant Touch This tab

Band:  Confession
Song:  You Can't Touch This
Album: Can't Live, Can't Breathe

Tuning: Drop A# [A#,E,A#,D#,G,C]

Probably not 100% perfect, but I feel it's pretty close.
Enjoy!


Intro

Part One

GUITAR ONE

C |--------------------------------------------------------|
G |--------------------------------------------------------|
D#|--------------------------------------------------------|
A#|-0-0-0-0--------------------0-0-0-0---------------------|
E |-0-0-0-0--------------------0-0-0-0---------------------|
A#|-0-0-0-0--------------------0-0-0-0---------------------|
PM  . . . .                    . . . .

GUITAR TWO (No bass on the EQ)

C |--------------------------------------------------------|
G |--------------------------------------------------------|
D#|--------------------------------------------------------|
A#|-----------1--------------------------1------------8----|
E |---------5---5----------------------5---5-------12---12-|
A#|---------------0-0-0--0-0-0---------------0-0-0---------|

Part Two

GUITAR ONE

C |--------------------------------------------------------|
G |--------------------------------------------------------|
D#|--------------------------------------------------------|
A#|-0-0-0-0~~~~~~~~~~~~~~~~~~~-0-0-0-0---------------------|
E |-0-0-0-0~~~~~~~~~~~~~~~~~~~-0-0-0-0---------------------|
A#|-0-0-0-0~~~~~~~~~~~~~~~~~~~-0-0-0-0---------------------|
PM  . . . .                    . . . .

GUITAR TWO (No bass on the EQ)

C |--------------------------------------------------------|
G |--------------------------------------------------------|
D#|--------------------------------------------------------|
A#|-----------1--------------------------1------------8----|
E |---------5---5----------------------5---5-------12---12-|
A#|---------------0-0-0--0-0-0---------------0-0-0---------|


Verse A x2

GUITAR ONE

C |--------------------------------------------------------|
G |--------------------------------------------------------|
D#|--------------------------------------------------------|
A#|-0-0-0-0----8---------------0-0-0-0----8----------------|
E |-0-0-0-0-12---12~~~~~~~~~~~-0-0-0-0-12---12~~~~~~~~~~~--|
A#|-0-0-0-0--------------------0-0-0-0---------------------|
PM  . . . .                    . . . .

GUITAR TWO

C |--------------------------------------------------------|
G |--------------------------------------------------------|
D#|--------------------------------------------------------|
A#|-----------1--------------------------1------------8----|
E |---------5---5----------------------5---5-------12---12-|
A#|---------------0-0-0--0-0-0---------------0-0-0---------|


Verse B x2

GUITAR ONE

C |-----------------------------------------------------------|
G |-----------------------------------------------------------|
D#|-----------------------------------------------------------|
A#|-0-------------8-12-10-8-0---------------------------------|
E |-0-000-000-000-8-12-10-8-0-000-000-000---------8---------8-|
A#|-0-000-000-000-8-12-10-8-0-000-000-000-5-8-7-5---5-8-7-5---|
PM    ... ... ...             ... ... ...

GUITAR TWO

C |---------------------------------------8~~~~-8~~~~----------|
G |-----------------------------------------6~~~~-6~~~~---6~~~-|
D#|-------------------------------------------9~~~~-9~~-9~~~~~-|
A#|------------------------------------------------------------|
E |------------------------------------------------------------|
A#|------------------------------------------------------------|


Pre-Chorus Breakdown x4

BOTH GUITARS

C |----------------------|
G |----------------------|
D#|----------------------|
A#|-0~~~0~~~0~~~~~~~~~~~-|
E |-0~~~0~~~0~~~~~~~~~~~-|
A#|-0~~~0~~~0~~~~~~~~~~~-|
PM  .   .   .


Pre-Chorus x4

GUITAR TWO

C |-----------------------------------------------------------|
G |-----------------------------------------------------------|
D#|-9h10p9-----------------------9h10p9-----------------------|
A#|--------10~~---10--------------------10~~---10-------------|
E |------------12-----12-10~~~~~------------12-----12-10~~~~~-|
A#|-----------------------------------------------------------|


Chorus x16

GUITAR ONE

C |-----------------------------------------------------------|
G |-----------------------------------------------------------|
D#|-----------------------------------------------------------|
A#|-8~~~~~~~~~~~~~~~~~~~~~~~~~~~-10~~~~~~~~~~~~~~~~~~~~~~~~~~-|
E |-8~~~~~~~~~~~~~~~~~~~~~~~~~~~-10~~~~~~~~~~~~~~~~~~~~~~~~~~-|
A#|-8~~~~~~~~~~~~~~~~~~~~~~~~~~~-10~~~~~~~~~~~~~~~~~~~~~~~~~~-|

GUITAR TWO

C |-----------------------------------------------------------|
G |-----------------------------------------------------------|
D#|-9h10p9-----------------------9h10p9-----------------------|
A#|--------10~~---10--------------------10~~---10-------------|
E |------------12-----12-10~~~~~------------12-----12-10~~~~~-|
A#|-----------------------------------------------------------|


Breakdown A x4

BOTH GUITARS

C |---------------------------------|
G |---------------------------------|
D#|---------------------------------|
A#|-0-0-0-0-0-0-0-------------0-0-0-|
E |-0-0-0-0-0-0-0-------------0-0-0-|
A#|-0-0-0-0-0-0-0-------------0-0-0-|
PM  . . . .  . . .            . . .


Breakdown B x5

BOTH GUITARS

C |---------------------------------|
G |---------------------------------|
D#|---------------------------------|
A#|-0~~~0~~~0~~~0-------------0-0-0-|
E |-0~~~0~~~0~~~0-------------0-0-0-|
A#|-0~~~0~~~0~~~0-------------0-0-0-|
PM  .   .   .   .             . . .


Finish:

BOTH GUITARS

C |---------------------------------|
G |---------------------------------|
D#|---------------------------------|
A#|-0~~~~~~~~~~~~~~~~~~~~~~~~~~~~~~-|
E |-0~~~~~~~~~~~~~~~~~~~~~~~~~~~~~~-|
A#|-0~~~~~~~~~~~~~~~~~~~~~~~~~~~~~~-|
Tap to rate this tab
# A B C D E F G H I J K L M N O P Q R S T U V W X Y Z