Guitaretab - guitar tabs
Song name
# A B C D E F G H I J K L M N O P Q R S T U V W X Y Z
Home / C / Confide / Zeal tab

Confide - Zeal tab

Intro
D |-000000------------------------------------------------------------|
A |-666666------------------------------------------------------------|
F  |-555555-----------------------------------------------------------|
C |-777777------------------------------------------------------------|
G |-000000------------------------------------------------------------|
C |-000000 repeat-----------------------------------------------------|

Verse/Riff
D |-------------------------------------------------------------------|
A |-------------------------------------------------------------------|
F  |------------------------------------------------------------------|
C |-8-00-10-----7-0-7-0-----------------------------------------------|
G |-8-00----7-8-8-0-7-0-777788----------------------------------------|
C |-8-00----------0-7-0--------repeat---------------------------------|


D |-----------------------------------------------------------------|
A |-----------------------------------------------------------------|
F  |----------------------------------------------------------------|
C |-10-10-10-10-10--7-7-7-10-10-10-8-0-0-7-0-7-0--------------------|
G |-8--8--8--8--8---8-8-8-8--8--8--8-0-0-8-0-7-0-777788-------------|
C |-8--8--8--8--8---7-7-7-7--7--7--8-0-0---0-7-0--------------------|

[ Tab from: http://www.guitaretab.com/c/confide/114388.html ]
D |-000000------------------------------------------------------------|
A |-666666------------------------------------------------------------|
F  |-555555-----------------------------------------------------------|
C |-777777------------------------------------------------------------|
G |-000000------------------------------------------------------------|
C |-000000 repeat-----------------------------------------------------|

Breakdown
D |------------------------------------------------------------------|
A |------------------------------------------------------------------|
F  |-----------------------------------------------------------------|
C |-0--0-0---0--0-0--------------------------------------------------|
G |-0--0-0---0--0-0--------------------------------------------------|
C |-0--0-0---0--0-0--------------------------------------------------|


D |-----------------------------------------------------------------|
A |-----------------------------------------------------------------|
F  |----------------------------------------------------------------|
C |-10-10-10-10-10--7-7-7-10-10-10-8-0-0-7-0-7-0--------------------|
G |-8--8--8--8--8---8-8-8-8--8--8--8-0-0-8-0-7-0-777788-------------|
C |-8--8--8--8--8---7-7-7-7--7--7--8-0-0---0-7-0--------------------|


D |-000000------------------------------------------------------------|
A |-666666------------------------------------------------------------|
F  |-555555-----------------------------------------------------------|
C |-777777------------------------------------------------------------|
G |-000000------------------------------------------------------------|
C |-000000 repeat-----------------------------------------------------|
Related for Zeal tab
Advertisement will be closed in 10 seconds