Song name
# A B C D E F G H I J K L M N O P Q R S T U V W X Y Z

Confide - If We Were A Sinking Ship tab

Lead part of If We Were A Sinking Ship by Confide,
The tuning from high to low is - d,A,F,C,G,C
Tabbed by Shorty1372
If you need a reference on how this goes here is the actual part being played by their 
guitarist who wrote the song: http://www.youtube.com/watch?v=v75JgHiKnTU

This is a great song and hope this tab is what your lookin for (:


Clean Guitar: 0:00 - 0:08

|-------------------------------------------------|
|-------------------------------------------------|
|-9--9--9--9--9--9--9--9--8--8--8--8--8--8--8--8--|
|-10-10-10-10-10-10-10-10-10-10-10-10-10-10-10-10-| x3
|-8--8--8--8--8--8--8--8--0--0--0--0--0--0--0--0--|
|-------------------------0--0--0--0--0--0--0--0--|

Distortion Guitar: 0:09 - 0:14

|-------------------------------------------------------------------------|
|-------------------------------------------------------------------------|
|-9--9--9--9--9--9--12-12-12-9--9--9--10-10-10-9--9--9--10-10-10-9--9--9--|
|-10-10-10-10-10-10-10-10-10-10-10-10-10-10-10-10-10-10-10-10-10-10-10-10-|
|-8--8--8--8--8--8--8--8--8--8--8--8--8--8--8--8--8--8--8--8--8--8--8--8--|
|-------------------------------------------------------------------------|


|-------------------------------------------------------------------------|
|-------------------------------------------------------------------------|
|-14-14-14-14-14-14-17-17-17-14-14-14-15-15-15-14-14-14-15-15-15-14-14-14-|
|-15-15-15-15-15-15-15-15-15-15-15-15-15-15-15-15-15-15-15-15-15-15-15-15-|
|-13-13-13-13-13-13-13-13-13-13-13-13-13-13-13-13-13-13-13-13-13-13-13-13-|
|-------------------------------------------------------------------------|


0:15 - 0:38

|------------------------------------------------------|
|-----------6------------------------------------------|
|-----------9---9999------------------1515151517171717-|
|---8-----------xxxx------5-4---0------x-x-x-x-x-x-x-x-|
|-----7-5-------7777/10-------2-0-----1313131313131313-|
|-0-------0---0---------0-------0-0-0------------------|
  .       .   .         .         . .


|------------------------------------------------------|
|-----------6------------------------------------------|
|-----------9---9999------------------1515151515151515-|
|---8-----------xxxx------5-4---0------x-x-x-x-x-x-x-x-|
|-----7-5-------7777/10-------2-0-----1313131312121212-|
|-0-------0---0---------0-------0-0-0------------------|
  .       .   .         .         . .

|------------------------------------------------------|
|-----------6------------------------------------------|
|-----------9---9999------------------1515151517171717-| x2
|---8-----------xxxx------5-4---0------x-x-x-x-x-x-x-x-|
|-----7-5-------7777/10-------2-0-----1313131313131313-|
|-0-------0---0---------0-------0-0-0------------------|
  .       .   .         .         . .

0:39 - 1:02

|---------------------------------------------17-------------------------------------|
|------------------------------------------15----15----------------------------------|
|---17171717171717171515151515151515-15-14----------14-------------------------------|
|----x-x-x-x-x-x-x-x-x-x-x-x-x-x-x-x-------------------15-14/12-12h14p12----------12-|
|-0-13131313131313131313131313131313-------------------------------------15-13-12----|
|-0----------------------------------------------------------------------------------|
  .

|-------------------------------------------14---------------------------------------|
|----------------------------------------15----15------------------------------------|
|-17171717171717171515151515151515-15-14----------14-14h15p14----------14h15p14---17-|
|--x-x-x-x-x-x-x-x-x-x-x-x-x-x-x-x----------------------------15----15---------15----|
|-13131313131313131313131313131313-------------------------------17------------------|
|------------------------------------------------------------------------------------|


|-------------------------------------------18-------------------------------------|
|----------------------------------------15----15----------------------------------|
|-17171717171717171515151515151515-15-14----------14-------------------------------|
|--x-x-x-x-x-x-x-x-x-x-x-x-x-x-x-x-------------------15-14/12-12h14p12----------12-|
|-13131313131313131313131313131313-------------------------------------15-13-12----|
|----------------------------------------------------------------------------------|


|-------------------------------------------14h15p14----17-15-14-------------------|
|----------------------------------------15----------15----------15----------------|
|-17171717171717171515151515151515-15-14----------------------------14h15p14-------|
|--x-x-x-x-x-x-x-x-x-x-x-x-x-x-x-x-------------------------------------------15----|
|-13131313131313131313131313131313----------------------------------------------17-|
|----------------------------------------------------------------------------------|


1:03 - 1:08

|-------------------------------------------------------|
|-------------------------------------------------------|
|-8-8--8-8--8-8--8-8--8-8--8-8--8-8--8-8--8-8--8-8--8-8-|
|-7-7--7-7--7-7--7-7--7-7--7-7--7-7--7-7--7-7--7-7--7-7-|
|-6-6--6-6--6-6--6-6--6-6--6-6--6-6--6-6--6-6--6-6--6-6-|
|-------------------------------------------------------|


Pause from 1:09 - 1:16

1:17 - 1:32

|----------------------------------------------|
|----------------------------------------------|
|----------------------------------------------|
|--0---0--00---0---0--00---0---0-00---0---0-00-|
|--0---0--00---0---0--00---0---0-00---0---0-00-|
|--0---0--00---0---0--00---0---0-00---0---0-00-|


1:33 - 1:44

|------------------------------------------------------|
|-----------6------------------------------------------|
|-----------9---9999------------------1515151517171717-|
|---8-----------xxxx------5-4---0------x-x-x-x-x-x-x-x-|
|-----7-5-------7777/10-------2-0-----1313131313131313-|
|-0-------0---0---------0-------0-0-0------------------|
  .       .   .         .         . .


|------------------------------------------------------|
|-----------6------------------------------------------|
|-----------9---9999------------------1515151515151515-|
|---8-----------xxxx------5-4---0------x-x-x-x-x-x-x-x-|
|-----7-5-------7777/10-------2-0-----1313131312121212-|
|-0-------0---0---------0-------0-0-0------------------|
  .       .   .         .         . .


1:45 - 1:50

|-------------------|
|-------------------|
|-------------------|
|-------------------|
|-0-0-0-0-0-0-0-0-0-|
|-0-0-0-0-0-0-0-0-0-|
  . . . . . . . . .


1:52 - 2:15

|--------------------------------------------17-------------------------------------|
|-----------------------------------------15----15----------------------------------|
|--17171717171717171515151515151515-15-14----------14-------------------------------|
|---x-x-x-x-x-x-x-x-x-x-x-x-x-x-x-x-------------------15-14/12-12h14p12----------12-|
|--13131313131313131313131313131313-------------------------------------15-13-12----|
|-----------------------------------------------------------------------------------|


|-------------------------------------------14---------------------------------------|
|----------------------------------------15----15------------------------------------|
|-17171717171717171515151515151515-15-14----------14-14h15p14----------14h15p14---17-|
|--x-x-x-x-x-x-x-x-x-x-x-x-x-x-x-x----------------------------15----15---------15----|
|-13131313131313131313131313131313-------------------------------17------------------|
|------------------------------------------------------------------------------------|


|-------------------------------------------18-------------------------------------|
|----------------------------------------15----15----------------------------------|
|-17171717171717171515151515151515-15-14----------14-------------------------------|
|--x-x-x-x-x-x-x-x-x-x-x-x-x-x-x-x-------------------15-14/12-12h14p12----------12-|
|-13131313131313131313131313131313-------------------------------------15-13-12----|
|----------------------------------------------------------------------------------|


|-------------------------------------------14h15p14----17-15-14--------------------|
|----------------------------------------15----------15----------15-----------------|
|-17171717171717171515151515151515-15-14----------------------------14h15p14----14~-|
|--x-x-x-x-x-x-x-x-x-x-x-x-x-x-x-x-------------------------------------------15-15~-|
|-13131313131313131313131313131313----------------------------------------------17~-|
|-----------------------------------------------------------------------------------|

Pause from 1:26 - 2:29

2:30 - 2:52

|----------------------------------------------------------|
|----------------------------------------------------------|
|----9----9----9----9-----16161616161616161717171716161616-|
|--10-10---10---10---10----x-x-x-x-x-x-x-x-x-x-x-x-x-x-x-x-|
|-8-----8----8----8----8--12121212121212121212121212121212-|
|----------------------------------------------------------|


|-------------------------------------------------------------|
|----12----12----13----12-------------------------------------|
|---9--9-----9-----9-----9---12121212-9-9-9-9-9-9-9-9-9-9-9-9-|
|-10----10----10----10----10-10101010101010101010101010101010-|
|--------------------------------------------1010----10101010-|
|-------------------------------------------------------------|


|----------------------------------------------------------|
|----------------------------------------------------------|
|----9----9----9----9-----16161616161616161717171716161616-|
|--10-10---10---10---10----x-x-x-x-x-x-x-x-x-x-x-x-x-x-x-x-|
|-8-----8----8----8----8--12121212121212121212121212121212-|
|----------------------------------------------------------|


|-------------------------------------------------------------|
|----12----12----13----12-------------------------------------|
|---9--9-----9-----9-----9---12121212-9-9-9-9-9-9-9-9-9-9-9-9-|
|-10----10----10----10----10-10101010101010101010101010101010-|
|--------------------------------------------1010----10101010-|
|-------------------------------------------------------------|


2:53 - 3:05

|-------------------------------------------------------------------|
|-------------------------------------------------------------------|
|-8-8--8-8--8-8--8-8--8------------------------------------7-7--7-7-|
|-7-7--7-7--7-7--7-7--7---0-0--0-0--0-0--0-0--0-0--0-0--0--6-6--6-6-|
|-6-6--6-6--6-6--6-6--6---0-0--0-0--0-0--0-0--0-0--0-0--0--5-5--5-5-|
|-------------------------0-0--0-0--0-0--0-0--0-0--0-0--0-----------|


|---------------------------------|
|---------------------------------|
|------------------------8-8--8-8-|
|-0-0--0-0--0-0--0-0--0--7-7--7-7-|
|-0-0--0-0--0-0--0-0--0--6-6--6-6-|
|-0-0--0-0--0-0--0-0--0-----------|


3:05 - 3:16

|------------------------------------------------------------------|
|-----------6------------------------------6-----------------------|
|-----------9---9--------------------------9---9-------------------|
|---8-------------8-6/---------0---8-------------8-6/---------0-00-|
|-----7-5----------------7-6-3-0-----7-5----------------7-6-3-0-00-|
|-0-------0---0--------0-------0-0-------0---0--------0-------0-00-|
  .       .   .        .         .       .   .        .
Tap to rate this tab
# A B C D E F G H I J K L M N O P Q R S T U V W X Y Z