Song name
# A B C D E F G H I J K L M N O P Q R S T U V W X Y Z

Confide - Such Great Heights tab

Such Great Heights
by Confide

Drop C Tuning

I got really tired of seeing incorrect tabs on these sites, 
So whatever song I play I'm making the correct version of them.
This tab is 100% accurate, 
(Did not include strum pattern)

/ =Slide
x =Mute

Verse 1: 
"I am thinking it's a sign..."
D|------------------------------------------|
A|------------------------------------------|
F|------------------------------------------| x4
C|-6--10--8--1------------------------------|  
G|-6--10--8--1------------------------------|
C|-6--10--8--1------------------------------|


Chorus:
"They won't see us waving from..."
D|------------------------------------------|
A|------------------------------------------|
F|----8--6--5-------------------------------|
C|-6--8--6--5-------------------------------| x2
G|-6--6--4--3-------------------------------|
C|-6----------------------------------------|



Verse 2:
"I tried my best to leave..."
D|------------------------------------------|
A|------------------------------------------|
F|------------------------------------------| x2
C|-6--10--8--1------------------------------|  
G|-6--10--8--1------------------------------|
C|-6--10--8--1------------------------------|


Chorus:
"They won't see us waving from..."
D|------------------------------------------|
A|------------------------------------------|
F|----8--6--5-------------------------------|
C|-6--8--6--5-------------------------------| x2
G|-6--6--4--3-------------------------------|
C|-6----------------------------------------|

Bridge:

D|------------------------------------------|
A|------------------------------------------|
F|--13/12/13/12---12/13/12/10/--10/8--------|
C|---x/-x/-x/-x----x/-x/-x/-x/---x/x--------| x2
G|--11/10/11/10---10/11/10/-8/---8/6--------|
C|------------------------------------------|

D|------------------------------------------|
A|------------------------------------------|
F|------------------------------------------|
C|--6--5--3--1------------------------------| x1
G|--6--5--3--1------------------------------|
C|--6--5--3--1------------------------------|
              "Come down....now"

Chorus:
"They won't see us waving from..."
D|------------------------------------------|
A|------------------------------------------|
F|----8--6--5-------------------------------|
C|-6--8--6--5-------------------------------| x3
G|-6--6--4--3-------------------------------|
C|-6----------------------------------------|
Tap to rate this tab
# A B C D E F G H I J K L M N O P Q R S T U V W X Y Z