Guitaretab - guitar tabs
Song name
# A B C D E F G H I J K L M N O P Q R S T U V W X Y Z

Conflict - Carlo Giuliani tab

-------------------------------------------------------------------------------
			    CONFLICT - Carlo Guiliani
-------------------------------------------------------------------------------


Tuning: E A D G B e


e|---------------------------------------------------------------------------|
B|---------------------------------------------------------------------------|
G|----------4444444-5-777777-55-4444-3333------------------------------------|
D|-55555555-4444444-5-777777-55-4444-3333------------------------------------|
A|-55555555-2222222-3-555555-33-2222-1111------------------------------------|
E|-33333333------------------------------------------------------------------|

e|---------------------------------------------------------------------------|
B|---------------------------------------------------------------------------|
G|------------------------5555-4444-8888-------------------------------------|
D|-55555555-66666666-5555-5555-4444-8888-------------------------------------|
A|-35555555-66666666-5555-3333-2222-6666-------------------------------------|
E|-33333333-44444444-3333----------------------------------------------------|

e|---------------------------------------------------------------------------|
B|---------------------------------------------------------------------------|
G|-66666666-------------------5555-------66666666-------------------5555-----|
D|-66666666-66666666-77777777-5555-6666--66666666-66666666-77777777-5555-----|
A|-44444444-66666666-77777777-3333-6666--44444444-66666666-77777777-3333-----|
E|----------44444444-55555555------4444-----------44444444-55555555----------|

[ Tab from: http://www.guitaretab.com/c/conflict/101282.html ]
e|--------------|-----|-----|------------------------------------------------|
B|--------------|-----|-----|------------------------------------------------|
G|----55-44-88--|again|again|------------------------------------------------|
D|-55-55-44-88--|-----|-----|88888888----------------------------------------|
A|-55-33-22-66--|-----|-----|88888888----------------------------------------|
E|-33-----------|-----|-----|66666666----------------------------------------|


e|---------------------------------------------------------------------------|
B|----------------------------77---------------------------------------------|
G|-66666666-55555555-88888888-66-99999999------------------------------------|
D|-66666666-55555555-88888888-44-99999999------------------------------------|
A|-44444444-33333333-66666666----77777777------------------------------------|
E|---------------------------------------------------------------------------|

e|---------------------------------------------------------------------------|
B|---------------------------------------------------------------------------|
G|-------------------------7777------9999------------------------------------|
D|-66666666-5555-8888-9999-7777-9999-9999------------------------------------|
A|-66666666-5555-8888-9999-5555-9999-7777------------------------------------|
E|-44444444-3333-6666-7777------7777-----------------------------------------|

e|----------|----------------------------------------------------------------|
B|----------|----------------------------------------------------------------|
G|-6-6-6-6--|-6666666666666--------------------------------------------------|
D|-6-6-6-6--|-6666666666666--5-----------------------------------------------|
A|-4-4-4-4--|-4444444444444--5-----------------------------------------------|
E|----------|----------------3-----------------------------------------------|

e|-------------------------|---------|---------------------------------------|
B|---------------------666-|---------|---------------------------------------|
G|-666-7-666-7-666-7-6-666-|-2x-again|9999999999999999-----------------------|
D|-666-7-666-7-666-7-6-444-|---------|9999999999999999-----------------------|
A|-444-5-444-5-444-5-4-----|---------|7777777777777777-----------------------|
E|-------------------------|---------|---------------------------------------|

Carlo Giuliani, a 23-year-old Italian activist, poet and anarchist, was killed during 
demonstrations against the Group of Eight summit that was held in Genoa from July 19 to 
21, 2001.
Related for Carlo Giuliani tab
Advertisement will be closed in 10 seconds