Song name
# A B C D E F G H I J K L M N O P Q R S T U V W X Y Z

Conflict - Increase The Pressure tab

Help us improve GuitareTab! Take a short survey!
song - Increase the Pressure
band - Conflict

INTRO:
(* = palm mute)  
e----------------------------------------------------------------
B-------------------------------------------5--5-5--5--5-5--5-5--
G-7--7-7--7--7-7--7-7--5--5-5--5--5-5--5-5--5--5-5--5--5-5--5-5--
D-7--7-7--7--7-7--7-7--5--5-5--5--5-5--5-5-----------------------
A----------------------------------------------------------------
E----------------------------------------------------------------
      * *     * *          * *     * *          * *     * *    
e-------------------l
B-8-8-8--7-7-7-7-7--l
G-7-7-7--7-7-7-7-7--l
D-------------------l
A-------------------l
E-------------------l

VERSE:
e--------------------------------------------------l
B--------------------------------------------------l
G-----------8--7--7-7-7--8--5--5-5-5--8--7--7-7-7--l
D-5--5-5-5--8--7--7-7-7--8--5--5-5-5--8--7--7-7-7--l
A-5--5-5-5--6--5--5-5-5--6--3--3-3-3--6--5--5-5-5--l
E-3--3-3-3-----------------------------------------l

INTERLUDE:
e--------------------------------------------------------------------------l
B--------------------------------------------------------------------------l
G-7-7-7-7-7-7--10-9--5-5-5-5-5-5--7--5--4-4-4-4-4-4--5--4--2-2-2-2-2-2-2-2-l
D-7-7-7-7-7-7--10-9--5-5-5-5-5-5--7--5--4-4-4-4-4-4--5--4--2-2-2-2-2-2-2-2-l
A-5-5-5-5-5-5--8--7--3-3-3-3-3-3--5--3--2-2-2-2-2-2--3--2--0-0-0-0-0-0-0-0-l
E--------------------------------------------------------------------------l
Related for Increase The Pressure tab