Song name
# A B C D E F G H I J K L M N O P Q R S T U V W X Y Z

Conflict - All Nations Under The Bomb tab

Song: All Nations Under the Bomb
Artist: Conflict
e-mail: iamtheowl133@aol.com


INTRO:
-play 3 times
e|----------------------|
B|----------------------|
G|----------------------|
D|-3--2-----0--2--3--2--|
A|-------3--------------|
E|----------------------|

-on the 4th time play...
e|----------------------------|
B|----------------------------|
G|-------------------------2--|
D|-3-3--2-2-------0--2--3--2--|
A|-----------3-3-----------0--|
E|----------------------------|

VERSE:
e|-------------------------------------------------|
B|-------------------------------------------------|
G|-2-2--2-2-2--------------------------------------|
D|-2-2--2-2-2--5-5--5-5-5--3-3--3-3-3--2-2--2-2-2--|
A|-0-0--0-0-0--5-5--5-5-5--3-3--3-3-3--2-2--2-2-2--|
E|-------------3-3--3-3-3--1-1--1-1-1--0-0--0-0-0--|

e|-------------------------------------------------|
B|-------------------------------------------------|
G|-2-2--2-2-2--------------------------------------|
D|-2-2--2-2-2--5-5--5-5-5--3-3--3-3-3--5-5--5-5-5--|
A|-0-0--0-0-0--5-5--5-5-5--3-3--3-3-3--5-5--5-5-5--|
E|-------------3-3--3-3-3--1-1--1-1-1--3-3--3-3-3--|

OUTRO:
e|--------------------------------------------------------------|
B|--------------------------------------------------------------|
G|--------------------------------------------------------------|
D|-2-3-4-5-6-7-8-9-10-11-12--13-13-13-13-13-13--14--15--16--17--|
A|-2-3-4-5-6-7-8-9-10-11-12--13-13-13-13-13-13--14--15--16--17--|
E|-0-1-2-3-4-5-6-7-8--9--10--11-11-11-11-11-11--12--13--14--15--|
Tap to rate this tab
 
# A B C D E F G H I J K L M N O P Q R S T U V W X Y Z