Guitaretab - guitar tabs
Song name
# A B C D E F G H I J K L M N O P Q R S T U V W X Y Z

Conflict - Berkshire Cunt tab

Conflict  Berkshire Cunt
Album: It's Time To See Who's Who Now

NOTE: The numbers of chords shown here is NOT exactly how many times you play each 
Use the tab as a map-- you figure out the timing and times played.
[ Tab from: http://www.guitaretab.com/c/conflict/74537.html ]
Verse:
E|------------------------------|
B|------------------------------|
G|-------------22---------------|
D|---444444-22-22-5555555555----|
A|---444444-22-00-5555555555----|
E|---222222-00----3333333333----|

Chorus:
E|------------------------------|
B|------------------------------|
G|--555555--9-------------------|
D|--555555--9--9--7777777777----|
A|--333333--7--9--7777777777----|
E|-------------7--5555555555----|

End on:
E|----------------|
B|----------------|
G|----------------|
D|--4~------------|
A|--4~------------|
E|--2~------------|
Related for Berkshire Cunt tab