Guitaretab - guitar tabs
Song name
# A B C D E F G H I J K L M N O P Q R S T U V W X Y Z

Conflict - Exploitation tab

Conflict  Exploitation:
Album: It's Time To See Who's Who Now


Intro:
E|-----------------------|
B|-----------------------|
G|--999999--7777777------|
D|--999999--7777777------|
A|--777777--5555555------|
E|-----------------------|
[ Tab from: http://www.guitaretab.com/c/conflict/74541.html ]
Verse:
E|--------------------------------------------------|
B|--------------------------------------------------|
G|--9-9999-14-14141414-11-11111111-12-1211-1111-----|
D|--9-9999-14-14141414-11-11111111-12-1211-1111-----|
A|--7-7777-12-12121212--9--9-9-9-9-10-10-9--9-9-----|
E|--------------------------------------------------|

Chorus:
E|-----------|------------|
B|-----------|------------|
G|--9--7--5--|--4---------|
D|--9--7--5--|--4---------|
A|--7--5--3--|--2---------|
E|-----------|------------|
Related for Exploitation tab