Song name
# A B C D E F G H I J K L M N O P Q R S T U V W X Y Z

Conflict - No Island Of Dreams tab

Conflict – No Island of Dreams:

Intro (played slowly) and Verse:
E|-------------------|
B|-------------------|
G|---6-----------4---|
D|---6---6---2---4---|
A|---4---6---2---2---|
E|-------4---0-------|

2nd part of verse (played at “First the facts...” to “Fuck the lot”)
E|---------------------|
B|---------------------|
G|---666666------------|
D|---666666-777777-----|
A|---444444-777777-----|
E|----------555555-----|

Breakdown:
E|------------------|
B|------------------|
G|--9--7------------|
D|--7--7--7--9------|
A|--7--5--7--9------|
E|--------5--7------|

After “Noise...Noise...”
E|-------------------|
B|-------------------|
G|---6-------1---4---|
D|---6---6---2---4---|
A|---4---6---2---2---|
E|-------4---0-------|
    (Try this arpeggio style)
Tap to rate this tab
# A B C D E F G H I J K L M N O P Q R S T U V W X Y Z