Guitaretab - guitar tabs
Song name
# A B C D E F G H I J K L M N O P Q R S T U V W X Y Z

Conflict - Whichever Way You Want It tab

Conflict – Whichever Way You Want It
Album: It's Time To See Who's Who Now

KEY:
/ = slide up
\ = slide down
b = bend
r = release bend (to given string #)
>> = quick series of strums

NOTE: The solo doesn't contain the exact amount of notes played and instead shows WHAT 
to play. Listen to the song and you'll get it.

Intro: (played slow x2 and w/multiple plucks after)
E|-----------------------------------|
B|--/10~---10\8-8~--8\6-6~--6\5-5~---|
G|-----------------------------------|
D|-----------------------------------|
A|-----------------------------------|
E|-----------------------------------|

Verse/Chorus1:
E|--------------------|
B|--------------------|
G|--------------------|
D|--7---5---3---2-----|
A|--7---5---3---2-----|
E|--5---3---1---0-----|
[ Tab from: http://www.guitaretab.com/c/conflict/74544.html ]
Solo:
E|------------------------------------------------------------------|
B|--10----10/12-----12/13--------15b17-b-b-b-b-b---15b17r15-13-10---|
G|------------------------------------------------------------------|
D|------------------------------------------------------------------|
A|------------------------------------------------------------------|
E|------------------------------------------------------------------|

E|------------------------------------------------16b-16b-----------|
B|--10----10/12-----12/13--------15b17-b-b-b-b-b-b------------------|
G|------------------------------------------------------------------|
D|------------------------------------------------------------------|
A|------------------------------------------------------------------|
E|------------------------------------------------------------------|

Post-Solo: (“There ain’t no fucking...”)
E|--------------------|
B|--------------------|
G|--------------------|
D|--7--9--10-12-------|
A|--7--9--10-12-------|
E|--5--7--8--10-------|

“Liberate...Liberate..."
E|---------------------------------|
B|---------------------------------|
G|---------------------------------|
D|--7777---55555---3333---2222-----|
A|--7777---55555---3333---2222-----|
E|--5555---33333---1111---0000-----|
    >>>>   >>>>>   >>>>   >>>>

“A-nimal testing...”
E|--------------------|
B|--------------------|
G|--------------------|
D|--7---5---3---2-----|
A|--7---5---3---2-----|
E|--5---3---1---0-----|
Related for Whichever Way You Want It tab
Advertisement will be closed in 10 seconds