Song name
# A B C D E F G H I J K L M N O P Q R S T U V W X Y Z

Conflict - Senerade Is Dead tab

Bass Intro:
e|--------------------------------------------------------------------|
B|--------------------------------------------------------------------|
G|--------------------------------------------------------------------|
D|--------------------------------------------------------------------|
A|-----------------6-7-7-7-7-7-7--------------------------------------|
E|---3-4-4-4-4-4-4---------------6-7-7-7-7-7-7-1-2-2-2-2-0-1-3--------|

Guitar and Drums:
e|-----------------------------------------------------|
B|-----------------------------------------------------|
G|----5------------9-------------8-------------3-------|
D|----6------------9-------------9-------------4-------|
A|----6------------7-------------9-------------4-------|
E|----4--------------------------7-------------2-------|

Guitar:
Riff1
e|-------------------------------------------------------|
B|-------------------------------------------------------|
G|----5-5-5-5-5-5---9-9-9-9-9-9--8-8-8-8-8-8--3-3-3-3-3--|
D|----6-6-6-6-6-6---9-9-9-9-9-9--9-9-9-9-9-9--4-4-4-4-4--|
A|----6-6-6-6-6-6---7-7-7-7-7-7--9-9-9-9-9-9--4-4-4-4-4--|
E|----4-4-4-4-4-4----------------7-7-7-7-7-7--2-2-2-2-2--|

Riff2
e|--------------------------------------------------------------|
B|--------------------------------------------------------------|
G|----11-11-11-11-11-11--7-7-7-7-7-7--9-9-9-9-9-9--6-6-6-6-6-6--|
D|----11-11-11-11-11-11--7-7-7-7-7-7--9-9-9-9-9-9--6-6-6-6-6-6--|
A|----9--9--9--9--9--9---5-5-5-5-5-5--7-7-7-7-7-7--4-4-4-4-4-4--|
E|--------------------------------------------------------------|

Chorus (end part)
e|---------------------------------------------------|
B|---------------------------------------------------|
G|--5--5--5--5---9--9--9--9--8--8--8--8--3--3--3--3--|
D|--6--6--6--6---9--9--9--9--9--9--9--9--4--4--4--4--|
A|--6--6--6--6---7--7--7--7--9--9--9--9--4--4--4--4--|
E|--4--4--4--4---------------7--7--7--7--2--2--2--2--|

Bass Intro X2
Guitar and Drum Intro Over top of Bass X4
Verse Riff 1 X4
Riff 2 X4
Riff 1 X4
Riff 2 X4
Chorus X4
Riff 1 X4
Tap to rate this tab
 
# A B C D E F G H I J K L M N O P Q R S T U V W X Y Z