Song name
# A B C D E F G H I J K L M N O P Q R S T U V W X Y Z

Conflict - Mighty And Superior tab

Conflict - Mighty and Superior

Intro:
e:----------------------|-----------------------|---/12----12-17-12~~~~-----|
b:0-/5---8-7-5-1---0---0|0-/5---8-7-5-10---12---|12--------------------12---|
g:----------------------|-----------------------|---------------------------|
d:----------------------|-----------------------|---------------------------|
a:----------------------|-----------------------|---------------------------|
e:----------------------|-----------------------|---------------------------|

e:----------------------|
b:12---5-------12-------|
g:------------------9---|
d:------------------9---|
a:------------------7---|
e:----------------------|

e:-----------------|
b:-----------------|
g:--9--------------|6x
d:--9------10--9---|
a:--7------10--9---|
e:----------8--7---|

Riff1:
e:------------------|--------------------|
b:------------------|--------------------|
g:9-9-9-9-9-12-11-9-|--------------------|8x
d:9-9-9-9-9-12-11-9-|10-10-10-10-9-9-9-9-|
a:7-7-7-7-7-10--9-7-|10-10-10-10-9-9-9-9-|
e:------------------|08-08-08-08-7-7-7-7-|

e:----------------|------------------------|
b:----------------|------------------------|
g:9-9-9-9-9-9-9-9-|------------------------|2x
d:9-9-9-9-9-9-9-9-|10--10--10--12--12--12--|
a:7-7-7-7-7-7-7-7-|10--10--10--12--12--12--|
e:----------------|08--08--08--10--10--10--|

Bridge/Solo:
e:----||---------------|----------------|----------------|--------------|
b:----||---------------|------8---------|----------------|--------------|
g:----||---------------|----9-----9-x---|--9-7-----9-7---|----9---------|
d:9-7-||-----9-7---9-7-|--9-------------|7-------7-------|--9---9---9-7-|4x
a:----||--9------------|7-------------7-|----------------|7-------------|
e:----||7--------------|----------------|----------------|--------------|

repeat with text sometimes

Riff1:
e:------------------|--------------------|
b:------------------|--------------------|
g:9-9-9-9-9-12-11-9-|--------------------|8x
d:9-9-9-9-9-12-11-9-|10-10-10-10-9-9-9-9-|
a:7-7-7-7-7-10--9-7-|10-10-10-10-9-9-9-9-|
e:------------------|08-08-08-08-7-7-7-7-|

e:----------------|------------------------|
b:----------------|------------------------|
g:9-9-9-9-9-9-9-9-|------------------------|2x
d:9-9-9-9-9-9-9-9-|10--10--10--12--12--12--|
a:7-7-7-7-7-7-7-7-|10--10--10--12--12--12--|
e:----------------|08--08--08--10--10--10--|
Tap to rate this tab
 
# A B C D E F G H I J K L M N O P Q R S T U V W X Y Z