Song name
# A B C D E F G H I J K L M N O P Q R S T U V W X Y Z

Confront - One Life Drug Free tab

Help us improve GuitareTab! Take a short survey!
--------------------------------------------------------------
              ONE LIFE DRUG FREE - Confront
--------------------------------------------------------------

By:

    intro           verse
e|---------------|---------------------|---------------------|
B|---------------|---------------------|---------------------|
G|---------------|---------------------|---------------------|
D|--7-----9------|--7-7-----9-9--------|---------------------|
A|--5--8--7--10--|--5-5-8-8-7-7-10-10--|--7-7-7-7-7-7-7-7----|
E|-----6----- 8--|------6-6----- 8- 8--|--5-5-5-5-5-5-5-5----|
    
    verse 2
e|-----------------------------------------------------------|
B|-----------------------------------------------------------|
G|-----------------------------------------------------------|
D|-----------------------------------------------------------|
A|--10-10-10-9-9-9-10-10-10-9-9-9-10-8-7---------------------|
E|-- 8- 8- 8-7-7-7- 8- 8- 8-7-7-7- 8-6-5---------------------|

    chorus
e|-----------------------------------------------------------|
B|-----------------------------------------------------------|
G|-----------------------------------------------------------|
D|-----------------------------------------------------------|
A|--7-7-7-7-7-7-7-7-7-7-7-6-6/7--7-7-7-7-7-7-7-7-7-7--6-6-7--|
E|--5-5-5-5-5-5-5-5-5-5-5-4-4/5--5-5-5-5-5-5-5-5-5-5--4-4-5--|

==============================================================
Related for One Life Drug Free tab