Song name
# A B C D E F G H I J K L M N O P Q R S T U V W X Y Z

Conjure One - Center Of The Sun tab

[code]
(/) Slide Up  (\) Slide Down  (h) Hammer On  (p) Pull Off  (b) Bend (r) Release (v) Vibrato

E|-----------------------------------------------------------------------------------------|
B|--15--13--15----13--10--11--11/13----------------------------------------------------13--|b
G|-------------------------------------12b10--12--10--12v----------------------------------|
D|-------------------------------------------------------------------10--12--12--12--------|
A|-----------------------------------------------------------10--12------------------------|
E|-----------------------------------------------------------------------------------------|



E|---------------------------------------------------------------------------------------------|
B|--12b11--10--9--------------------------------------18--15---------------15--15v-------------|
G|-----------------------------------------14/15--17------------14/15--17-------------15-------|
D|---------------------------------------------------------------------------------------------|
A|----------------10/11--12--12--12--12--------------------------------------------------------|
E|---------------------------------------------------------------------------------------------|



E|------------------------------------------------------------------------------------------|
B|--------------------------------------18--15---------------15--15v------------------------|
G|--17--15--14---------------14/15--17------------14/15--17-------------15--17--15--14------|
D|--------------15--15/17---------------------------------------------------------------15--|
A|------------------------------------------------------------------------------------------|
E|------------------------------------------------------------------------------------------|



E|--------------------------------------|
B|--------------------------------------|
G|-----------15--17--15--14-------------|
D|--15/17--------------------15--15/17--|
A|--------------------------------------|
E|--------------------------------------|
[/code]
[url]http://www.guitartabcreator.com[/url]
Tap to rate this tab
 
# A B C D E F G H I J K L M N O P Q R S T U V W X Y Z